Search tabs:
Browse artists: 0-9 | A | B | C | D | E | F | G | H | I | J | K | L | M | N | O | P | Q | R | S | T | U | V | W | X | Y | Z
/ Coheed & Cambria / In Keeping Secrets of Silent Earth: 3 (2003) / The Velourium Camper II: Backend of Forever bass tab

\ means slide down
/ means slide up
words in ( ) are lyrics, they correspond to the line beneath them
words in { } are instructions, they correspond to the line above them
this song is in 6/8 time, meaning that there are 6 notes in a measure. ph33r.

|-------------------|
|.-----------------.|  <--- these are repeat signs. repeat what is contained within
|.-----------------.|them the indicated number of times
|-------------------|
okay, time to begin the actual tab

G:----------|
D:----------|
A:3---------|
E:----------|


G:----------|
D:----------|
A:3-3-------|
E:----------|

G:--------------------|
D:--------------------|
A:3-3--------6----\1--|
E:--------------------|
{hold out the 1 on the a until the 6 in the next phrase}
(Rocked silent in a soft lullaby)
         {the part between the repeat signs is what we'll call "main verse riff"}
G:------|------------------------------------------------------------------------------|
D:------|.----------0-0---0---1-1---1---3-3---3------------0-0---0---1-1---1---0-0---0.|x4
A:-6--\-|.3-3---3---------------------------------3-3---3-----------------------------.|
E:------|------------------------------------------------------------------------------|
(I wish...to the bitter end of my day where were you)
G:----------|
D:.--------.|
A:.3-3---3-.|x2
E:----------|

{this starts the "chorus" part}

{this line and the next is sprinkled with 5ths. i didn't write them in because they aren't THAT important, but he is
playing them. if you dont know what a 5th is, dont worry about it. just play up and string and up two frets from where
you're playing at the moment... so if you're playing 4 on the a string, then the fifth would be 6 on the d string.
pretty simple, throw them in where it sounds appropriate}
G:-----------------------------------------------------------------------------------------------------------------|
D:.--------------------------------------1-1-1-1-1----------------------------------------------------------------.|
A:.3-3-3-3-3-3-3-3-3-3-3-3-3-3-3-3-3-3-3-----------------------------------2-2-2-2-2-2-0-0-0-0-0-3-4------0-------.|x4
E:-------------------------------------------------2-2-2-2-2-2-2-2-2-2-2-2-----------------------------------------|


G:----------------------------------------------------------|
D:.-------------2-2--2--2-2--------------------------------.|x4
A:.--------------------------------------------------------.|
E:-4-4--4-4--4--------------2-2-2-2-2-2-0-0-0-0-0-0-0-0-0-0-|
{this ends the verse part}
G:-----------------------------------------------------------------------------------------------------------------|
D:----------------0-1--------------------------------------1-1-1-0------------------------------------------1-1-1-0|
A:3---3---3-3---3------1-1-1-1-1-1-1-1-1-1-1-1-1-1-1-1-1-1---------3-3-3-3-3-3-3-3-3-3-3-3-3-3-3-3-3-3-3--3--------|
E:-----------------------------------------------------------------------------------------------------------------|


G:------------------|
D:------------------|
A:-3---1------------|
E:---------4---3----|

{repeat main verse riff 4 times}

{repeat chorus part}

G:---------------------------------------------------------------------------------------------|
D:.------------------------2-2-2-2-2-2-2-2-2-2-2-2--------------------------------------------.| x 6
A:.2-2-2-2-2-2-2-2-2-2-2-2------------------------------------------------------------0-0--0-0.|
E:-------------------------------------------------2-2-2-2-2-2-2-2-2-2-2-2--4-4--4-4-----------|

-Stig-


Coheed & Cambria albums
2005 Good Apollo I'm Burning Star IV, Vol. 1: From Fear Through the Eyes of Madness
2003 In Keeping Secrets of Silent Earth: 3
2002 The Second Stage Turbine Blade
In Keeping Secrets of Silent Earth: 3 tabs
01The Ring in Return tabbass tab
02In Keeping Secrets of Silent Earth: 3 tabbass tab
03Cuts Marked in the March of Men tabbass tab
04Three Evils (Embodied in Love and Shadow) tabbass tab
05The Crowing tabbass tab
06Blood Red Summer tabbass tab
07The Velourium Camper I: Faint of Hearts tabbass tab
08The Velourium Camper II: Backend of Forever tabbass tab
10A Favor House Atlantic tabbass tab
11The Light & the Glass tabbass tab

 

1