Search tabs:
Browse artists: 0-9 | A | B | C | D | E | F | G | H | I | J | K | L | M | N | O | P | Q | R | S | T | U | V | W | X | Y | Z
/ Creed / My Own Prison (1997) / Sister bass tab

Creed
Sister
Tabbed by Marc P
Dropped D tuning
 
Intro
G|-----------------------|
D|*---------------------*|
A|*-9-10-12--12--10-9-5-*|
D|-----------------------|
 
intro(con't)
G|-----------------------------------------------------------------------|
D|-----------------------------------------------------------------------|
A|-7-8--9-10--7h8-5-7h8-5-5-7h8-5-7h8-5-5-7h8-10-7h8-10-10-7h8-5-7h8-5-5-|
D|-----------------------------------------------------------------------|
 
verse
G|-------------------------------------|
D|*----------7-------0------0-------0-*|
A|*-/7---7h9-----7h9----7h9-----7h9---*|
D|-----0-------0-------0------0--------|
 
pre chorus(palm muted part)
G|-----------------------------------------|
D|*---------------------------------------*|
A|*-----------------------------9h10-9h10-*|
D|-0-0-10-9-0-0-9-8-0-0-8-7-0-0------------|
 
chorus
G|--------------------------------------|
D|*------------------------------------*|
A|*---------2-2-0-0--------------------*|
D|--0--0--0---------5-5-5-5-5-2-2-2-2-2-|


Creed albums
2001 Weathered
1999 Human Clay
1997 My Own Prison
My Own Prison tabs
01Torn tabbass tab
02Ode tabbass tab
03My Own Prison tabbass tab
04Pity For A Dime tabbass tab
05In America tabbass tab
06Illusion tabbass tab
07Unforgiven tabbass tab
08Sister tabbass tab
09What's This Life For tabbass tab
10One tabbass tab

 

1