Search tabs:
Browse artists: 0-9 | A | B | C | D | E | F | G | H | I | J | K | L | M | N | O | P | Q | R | S | T | U | V | W | X | Y | Z
/ Creed / Weathered (2001) / Don't Stop Dancing bass tab

Creed - Don't Stop Dancing
Submitted By: justinsayne
EMail: justinsayne_xiw@yahoo.com

Tuning: Standard (E A D G)

i don't know if this is exact or not but it's to the point

STANDARD TUNING
EADG

Intro/1st verse
G|-----------------
D|-----------------
A|-----------------
E|-----------------
 no bass in first verse

Pre Chorus:``Beacause inside i know``
G|-----------------------------------|
D|-----------------------------------|
A|-----------------------------------|
E|-12/-1--1--------------------------|

``That many feel this way``
G|------------------------------
D|------------------------------
A|-3-3-3-3-3-3-3----------------
E|------------------------------

Chorus:
``Children don't stop dancing``
G|---------------------------------------------------------
D|---------------------------------------------------------
A|--------------------5-5-5-5-5----------------------------
E|-3-3-3-3-3-3------------------------5-5-5-5-5-5-5--------

``Believe you can fly``
G|-----------------------------------------------
D|-----------------------------------------------
A|-3-3-3-3-3-3--------------------------5-5-5-5--
E|----------------3-3-3-3----5--5--5-------------

``Away,Away``
G|-------------------------------
D|-------------------------------
A|--------3-3-3-3-3-3-3----------
E|0h4----------------------------

  2nd Verse
G|----------------------------
D|------------2---------------
A|---------3-----2h3----------
E|-3---2----------------------
(Repeat Until it comes to)

``But i know i must go on``
G|------------------------
D|-2-2-2-2----------------
A|----------3-3-3--3------
E|------------------------

Pre Chorus:``Beacause inside i know``
G|-----------------------------------|
D|-----------------------------------|
A|-----------------------------------|
E|-12/-1--1--------------------------|

``That many feel this way``
G|------------------------------
D|------------------------------
A|-3-3-3-3-3-3-3----------------
E|------------------------------

Chorus:
``Children don't stop dancing``
G|---------------------------------------------------------
D|---------------------------------------------------------
A|--------------------5-5-5-5-5----------------------------
E|-3-3-3-3-3-3------------------------5-5-5-5-5-5-5--------

``Believe you can fly``
G|-----------------------------------------------
D|-----------------------------------------------
A|-3-3-3-3-3-3--------------------------5-5-5-5--
E|----------------3-3-3-3----5--5--5-------------


``Away,Away``
G|-------------------------------
D|-------------------------------
A|--------3-3-3-3-3-3-3----------
E|0h4----------------------------

Solo
G|-------------------------------------------------
D|-------------------------------------------------
A|------------------3------2----2h3----------------
E|-3-----2-----------------------------------------


``Am i Hiding``                 ``In the shadows``
G|----------------------------|----------------------------------------
D|----------------------------|----------------------------------------
A|-55555555555----------------|--3333333333333-------------------------
E|-------------55555555555----|-----------------3333333333333----------

Bridge(CLEAN GUITAR NO BASS)

``Away,Away``
G|----------------------------
D|----------------------------
A|-33333333333----------------
E|----------------------------

then repeat chorus


Creed albums
2001 Weathered
1999 Human Clay
1997 My Own Prison
Weathered tabs
01Bullets tabbass tab
02Freedom Fighter tabbass tab
03Who's Got My Back? tabbass tab
04Signs tabbass tab
05One Last Breath tabbass tab
06My Sacrifice tabbass tab
07Stand Here With Me tabbass tab
08Weathered tabbass tab
09Hide tabbass tab
10Don't Stop Dancing tabbass tab
11Lullaby tabbass tab

 

1