Search tabs:
Browse artists: 0-9 | A | B | C | D | E | F | G | H | I | J | K | L | M | N | O | P | Q | R | S | T | U | V | W | X | Y | Z
/ Creed / Weathered (2001) / Freedom Fighter bass tab

Band/Group - Creed
Album - Weathered
Song - Freedom Fighter
Tabbed by - Korica
E-Mail - Therock4615@cs.com

3-23-02
I got the bridge done (Finally!) after putting it off for so long, and I cleaned it up too!


This song is in Dropped-D Tuning (Low to High, DADG)

Intro AND Verse 1

G-|-----------
D-|-----------
A-|-----------
D-|-x-x-x-x---


G-|----------------------------------------
D-|-------------------------3--------------
A-|-----------0h3----0h3h5-----------------      x3
D-|--0--3h5-------0------------------------

G-|----------------------------------------
D-|-------------6h5h3----3-----------------
A-|--------0h3--------5----5--3------------    x1
D-|--0-3h5---------------------------------

G-|----------------------------------------
D-|-------------------------3--------------
A-|-----------0h3----0h3h5-----------------       x3
D-|--0--3h5-------0------------------------

G-|------------------------------------
D-|----5~-5-6h5h3---3------------------
A-|---------------5---5--3-------------        x1
D-|------------------------------------

Verse 1 Break

G-|-------------------------------------------------------------------
D-|-------------------------------------------------------------------
A-|--------3-33-2-22--------------------------------------------------
D-|--0-00--------------5-5-4-3-33-/-777-\\-2-22-0---6-5-3-5~-3---------

Verse 2

G-|----------------------------------------
D-|-------------------------3--------------
A-|-----------0h3----0h3h5-----------------       x3
D-|--0--3h5-------0------------------------

G-|----------------------------------------
D-|-------------6h5h3----3-----------------
A-|--------0h3--------5----5--3------------    x1
D-|--0-3h5---------------------------------

G-|----------------------------------------
D-|-------------------------3--------------
A-|-----------0h3----0h3h5-----------------       x3
D-|--0--3h5-------0------------------------

GG-|------------------------------------
D-|----5~-5-6h5h3---3------------------
A-|---------------5---5--3-------------        x1
D-|------------------------------------


Chorus

G-|-------------------------------------------------------------------
D-|-------------------------------------------------------------------
A-|--------3-33-2-22--------------------------------------------------   x1
D-|--0-00--------------5-5-4-3-33-/-777-\\-2-22-0---6-5-3-5~-3---------

G-|-------------------------------------
D-|-------------------------------------
A-|-------------------------------------   x3
D-|--0-00--0-00--0-00----6-5-3-5~-3-----

Bridge/Interlude

G-|--------------------------------------
D-|--------------------------------------
A-|--------------------------------------    x6
D-|--0-000--0-000--000--9-8-7-8-7-5------

G-|--------------------------------------------------
D-|--------------------------------------------------
A-|----5h6p5\\3h5----5h6p5\\3h5----5h6p5\\3h5-----------    x4
D-|--0-----------0-------------0-----------33-5------

Last Chorus/Outro

G-|-------------------------------------------------------------------
D-|-------------------------------------------------------------------
A-|--------3-33-2-22--------------------------------------------------
D-|--0-00--------------5-5-4-3-33-/-777-\\-2-22-0---6-5-3-5~-3---------

G-|------------------------------------------------------
D-|-------------------------------------------------------
A-|-------------------------------------------------------
D-|---6-5-3-5~-3--6-5-3-5~-3---6-5-3-5~-3----0------------


Creed albums
2001 Weathered
1999 Human Clay
1997 My Own Prison
Weathered tabs
01Bullets tabbass tab
02Freedom Fighter tabbass tab
03Who's Got My Back? tabbass tab
04Signs tabbass tab
05One Last Breath tabbass tab
06My Sacrifice tabbass tab
07Stand Here With Me tabbass tab
08Weathered tabbass tab
09Hide tabbass tab
10Don't Stop Dancing tabbass tab
11Lullaby tabbass tab

 

1