Search tabs:
Browse artists: 0-9 | A | B | C | D | E | F | G | H | I | J | K | L | M | N | O | P | Q | R | S | T | U | V | W | X | Y | Z
/ Creed / Weathered (2001) / Weathered bass tab

Artist: Creed
Title: Weathered
Album: Weathered

Verse
G:--------------------------------------------------------------|
D:--------------------------------------------0-5p3-0~----------|
A:-3------------3-2---2~----------------------------------------|
D:-----------------------------------3/5--5---------------------|

Play this at 0:54 \\"Maybe I can\\'t accept the life that\\'s mine . . .\\"
G:----------------------------------------------------------------|
D:---------------------------------------------5p3p0~-----5^--5^--|
A:-3------------3-2---2~------------------------------------------|
D:-----------------------------------3/5--5-----------------------|

Going into first chorus -
G:---------|
D:-3h5-----|
A:------5--|
D:---------|

Chorus - "Me . . .I rusted and weathered . . ."
G:----------------------------------------|
D:----------------------------------------|
A:------------------1-1-------------------|
D:-0--0-0-0-0-0--0-------0--3-3-3-3-3--0--|

"Barely holding together . . ."
G:-------------------------------|
D:-------------------------------|
A:---3/5--3----------------------|
D:0----------0--5-5-5-5-5-5-5-5--|

"I'm covered with skin . . . . . . . ."
G:---------------------------------------|
D:---------------------------------------|
A:-8--------8--------8--------8----------|
D:---8-8-8----8-8-8----8-8-8----8-8--0~--|

"That peals and it just . . . . won’t heal"
G:---------------------------------------------|
D:---------------------------------------------|
A:------5--------5--------5--------------------|
D:--5-5---5--5-5---5--5-5---5—-5--0--5p3-0-3b--|

Going into verse 2
G:-----------------|
D:-3h5--3h5--3-----|
A:--------------5--|
D:-----------------|

Going into 2nd chorus -
G:--------------|------------------------------|
D:-3--3h5p3-----|------------------------------|
A:-----------5--|------------------------------|
D:--------------|--0-0--2-2-2-2--0-0--2-2-2-2--|

Then it goes into chorus

Bridge -
G:----------------------------------------------------------------|
D:----------------------------------------------------------------|
A:-------------------------------------------------------------5--|
D:-0---0---0---0-----0-0-0-0---------0---0---0---0---0---0-0------|

G:--------------------------------------------------------------------|
D:--------------------------------------------------------------------|
A:--------------------------------------------------------------------|
D:-0---0---0---0-----0-0-0-0---------0---0---0---0---0---0-0---0---0--|

Then a little later play these notes -
G:-------------------------------------------------------------|
D:-------------------------------------------------------------|
A:-------------------------------------------------------------|
D:-0---0---0---0-----0-0-0-0-----0---0---0---0---0-0-0-0---0---|

Then at - \\". . . fight . . . . to fight . . .\\"
G:------------------------------------------------------|
D:------------------------------------------------------|
A:-1-1-1-1-1-1-1-1-1-1-1--------------------------------|
D:------------------------0--5-5-5-5-5--0---5p3--0--3b--|

Then it finishes on the chorus

Ends on this -
G:---------|
D:---------|
A:---------|
D:---0~~---|


Creed albums
2001 Weathered
1999 Human Clay
1997 My Own Prison
Weathered tabs
01Bullets tabbass tab
02Freedom Fighter tabbass tab
03Who's Got My Back? tabbass tab
04Signs tabbass tab
05One Last Breath tabbass tab
06My Sacrifice tabbass tab
07Stand Here With Me tabbass tab
08Weathered tabbass tab
09Hide tabbass tab
10Don't Stop Dancing tabbass tab
11Lullaby tabbass tab

 

1