Search tabs:
Browse artists: 0-9 | A | B | C | D | E | F | G | H | I | J | K | L | M | N | O | P | Q | R | S | T | U | V | W | X | Y | Z
/ Creed / Weathered (2001) / Who's Got My Back? bass tab

Band : Creed	
Album : Weathered
Title : Who's got my back
Tabbed by : )3lackDragon

Indications :
(b) on the part mean bend the cord.
(~) on the part mean lets sounds the cord.
(note) on the part represent harmonics

drop 4th to d.

Intro (0:06)
g------(9)-------------|
d-(5)-------(5)---(7)--|
a----------------------|
d----------------------| x6

Riff #1 (0:34)		    Fill #1
g------------------------------------------|-----|
d------------------------------------------|-----|
a----------3\\--------3~\\~-------3~\\~-------|3~\\~-|
d-2-4345~-----2-4345~----2-4345~----2-4345~|-----|

Riff #1	(0:43)		    Fill #2
g------------------------------------------|-----|
d------------------------------------------|-----|
a----------3\\--------3~\\~-------3~\\~-------|33---|
d-2-4345~-----2-4345~----2-4345~----2-4345~|-----|

Riff #1 (0:51)		    Fill #3
g------------------------------------------|-----|
d------------------------------------------|-----|
a----------3\\--------3~\\~-------3~\\~-------|-----|
d-2-4345~-----2-4345~----2-4345~----2-4345~|\\\\~~-|

Riff #1 (1:01)		    Fill #4
g------------------------------------------|-----|
d------------------------------------------|-----|
a----------3\\--------3~\\~-------3~\\~-------|-----|
d-2-4345~-----2-4345~----2-4345~----2-4345~|~~~~~|

Riff #2 (1:10)
g--------------------------------------------------|
d--------------------------------------------------|
a--------------------------------------------------|
d-8~8~10~~~----8~8~10~~~----8~8~10~~~----8~8~10~~~-|

Riff #3 (1:19)
g-------------------------------------------------------------|
d-----10~~---------9~~9-7h97--------10~~---------10~~---------|
a-3~\\\\-----333-3~\\\\---7-----99\\\\3~\\\\-----333-3~\\\\-----333-3~~-|
d-------------------------------------------------------------|

Riff #1 (1:38)		    Fill #3
g------------------------------------------|-----|
d------------------------------------------|-----|
a----------3\\--------3~\\~-------3~\\~-------|-----|
d-2-4345~-----2-4345~----2-4345~----2-4345~|\\\\---|

Riff #1	(1:46)		    Fill #4
g------------------------------------------|-----|
d------------------------------------------|-----|
a----------3\\--------3~\\~-------3~\\~-------|-----|
d-2-4345~-----2-4345~----2-4345~----2-4345~|~~~~~|

Riff #2 (1:55)
g--------------------------------------------------|
d--------------------------------------------------|
a--------------------------------------------------|
d-8~8~10~~~----8~8~10~~~----8~8~10~~~----8~8~10~~~-|

Riff #4 (2:04)
g-------------------------------|
d-----10~~---------9~~9-7h97----|
a-3~\\\\-----333-3~\\\\---7-----99\\\\|
d-------------------------------| x3

Riff #5 (2:30)
g--------------------------------------------------|
d-----10~~-----------------------------------------|
a-3~\\\\-----333-3~\\\\--------------------------------|
d------------------2~~~---222~~~---222~~~---222~~~-|

Interlude (2:43)
g-(7)\\\\\\---------|
d-------(7)\\\\\\---|
a----------------|
d----------------| x4

Interlude 2 (3:03)
g-(7)---(7)----|
d----(7)-------|
a--------------|
d--------------| x4

Riff #6 (3:48)		    Fill #5
g------------------------------------------|-----|
d------------------------------------------|-----|
a------------------------------------------|3b---|
d-2-4345~-----2-4345~----2-4345~----2-4345~|-----|

Riff #6	(3:57)		    Fill #25
g------------------------------------------|-----|
d------------------------------------------|-----|
a------------------------------------------|3b---|
d-2-4345~-----2-4345~----2-4345~----2-4345~|-----|

Riff #7 (4:04)
g----------------------------------------|
d----------------------------------------|
a----------------------------------------|
d-8~8~10~~~-10101010-8~8~10~~~-10101010--| x2

Riff #8 (4:13 to 4:53) Ending
g-------------------|
d-----10~~-/7/54----|
a-3~\\\\--------------|
d-------------------| repeat a lot of time.


It's pretty close from the real part, plz if you see some error, tell me at jasbdragon@hotmail.com


Creed albums
2001 Weathered
1999 Human Clay
1997 My Own Prison
Weathered tabs
01Bullets tabbass tab
02Freedom Fighter tabbass tab
03Who's Got My Back? tabbass tab
04Signs tabbass tab
05One Last Breath tabbass tab
06My Sacrifice tabbass tab
07Stand Here With Me tabbass tab
08Weathered tabbass tab
09Hide tabbass tab
10Don't Stop Dancing tabbass tab
11Lullaby tabbass tab

 

1