Search tabs:
Browse artists: 0-9 | A | B | C | D | E | F | G | H | I | J | K | L | M | N | O | P | Q | R | S | T | U | V | W | X | Y | Z
/ Dark Tranquility / Haven (2000) / Feast of Burden bass tab

Band: Dark Tranquillity
Song: Feast Of Burden
Album: Haven
Bassist: Michael Niklasson
Tabbed By: BurnTheBassistMX (bronzemetaler@hotmail.com)
Tuning: C# F# B E

Riff 1 (0:00)
E  |--------------------------------|
B  |--------------------------------|
F# |--------------------------------|
C# |--10~/14\8~/12\10~/14\12-14-15--|

Riff 2 (0:10)
E  |--------------------------------------------------|
B  |-----10-12----10-12-10-12----10-12----12-10-8-10--|
F# |--88-------88-------------88-------88-------------|
C# |--------------------------------------------------|

E  |-----------------------|
B  |-----9----9----9----9--|
F# |--77---77---77---77----|
C# |-----------------------|

Riff 1 (0:23)
Riff 2 (0:33)

Fill 1 (0:55)
E  |----------------------------|
B  |----------------------------|
F# |----------------------------|
C# |--77-xxx-10-10-12-12-12-12--|

Riff 3 (0:57)
E  |---------------------------------------|
B  |---------------------------------------|
F# |---------------------------------------|
C# |--13-13--13-13-13--13-13--13-13-13-13--|

E  |---------------------------------------|
B  |---------------------------------------|
F# |---------------------------------------|
C# |--10-10--10-10-10--10-10--10-10-10-10--|

E  |-------------------------------------------|
B  |-------------------------------------------|
F# |-------------------------------------------|
C# |--55-555-55-5555-77-xxx-10-10-12-12-12-12--|

Fill 2 (1:21)
E  |------------|
B  |------------|
F# |--9~--------|
C# |-----10-12--|

Riff 2 (1:23)

Riff 4 (1:43)
E  |-----------------------------------------------|
B  |-----------------------------------------------|
F# |-----------------------------------------------|
C# |--7777-7777-7777-7777-5555-5555-5555-7h8-8h10--|x2

E  |-------------------------------------------------|
B  |-------------------------------------------------|
F# |--9999-9999-9999-9999-7777-7777-7777-7h10-10h12--|
C# |-------------------------------------------------|x2

Riff 3 (2:20)
Riff 2 (2:37)
Riff 1 (2:50)
Riff 2 (3:00)

End (3:14)
E  |------------|
B  |------------|
F# |------------|
C# |--22-22-2~--|


Dark Tranquility albums
2005 Character
2002 Damage Done
2000 Haven
1999 Projector
1997 The Mind's I
1995 The Gallery
1993 Skydancer
Haven tabs
01The Wonders at Your Feet tabbass tab
04Feast of Burden tabbass tab
05Haven tabbass tab
07Fabric tabbass tab
09Rundown tabbass tab

 

1