Search tabs:
Browse artists: 0-9 | A | B | C | D | E | F | G | H | I | J | K | L | M | N | O | P | Q | R | S | T | U | V | W | X | Y | Z
/ Dark Tranquility / Haven (2000) / Rundown bass tab

Standard

G||---------------------------|------------------|------------------|
D||---------------------------|------------------|------------------|
A||---------------------------|------------------|------------------|
E||--2--2-2-2-2-4--5--7--2----|------------------|------------------|



---------------------------|--------------||-----------------------------------|
---------------------------|--------------||*----------------------------------|
---------------------------|--------------||*----------------------------------|
--4---4-4-4-5--4--2--4---4-|--4-4-5---7---||---2-2-2-2-2-2-4-4-5-5-7-7-2-2-2-2-|



----------------------------------|----------------------------------|
----------------------------------|----------------------------------|
----------------------------------|----------------------------------|
--2-2-2-4-4-5-5-7-2-2-2-2-2-2-4-4-|--5-5-7-7-2-2-2-2-2-2-2-4-4-5-5-7-|



----------------------------------|---------------||-----------------------|
----------------------------------|--------------*||*----------------------|
----------------------------------|--------------*||*----------------------|
--4-4-4-4-4-4-5-5-4-4-2-2-4-4-4-4-|--4-4-5---7----||---3--3----------3--3--|



---------------------|----------------------------|----------------------|
---------------------|----------------------------|----------------------|
---------------------|----------------------------|----------------------|
------1----3--3------|------3--3-3-3-3-5--5-5-5-5-|--6--6----------6--6--|



---------------------|-----------------------------||
---------------------|----------------------------*||
---------------------|----------------------------*||
------5----1--1------|------6--6-6-6-6-8--8-8-8-8--||



-----------------------------------|----------------------------------|
*----------------------------------|----------------------------------|
*----------------------------------|----------------------------------|
---2-2-2-2-2-2-4-4-5-5-7-7-2-2-2-2-|--2-2-2-4-4-5-5-7-2-2-2-2-2-2-4-4-|



----------------------------------|----------------------------------|
----------------------------------|----------------------------------|
----------------------------------|----------------------------------|
--5-5-7-7-2-2-2-2-2-2-2-4-4-5-5-7-|--4-4-4-4-4-4-5-5-4-4-2-2-4-4-4-4-|



---------------||-----------------------|---------------------|
--------------*||*----------------------|---------------------|
--------------*||*----------------------|---------------------|
--4-4-5---7----||---3--3----------3--3--|------1----3--3------|



----------------------------|----------------------|---------------------|
----------------------------|----------------------|---------------------|
----------------------------|----------------------|---------------------|
------3--3-3-3-3-5--5-5-5-5-|--6--6----------6--6--|------5----1--1------|



-----------------------------||-----------|----------------------|
----------------------------*||-----------|----------------------|
----------------------------*||-----------|----------------------|
------6--6-6-6-6-8--8-8-8-8--||--3--------|----------------3--3--|



--------------------------------------|--------------------------------------|
--------------------------------------|--------------------------------------|
--------------------------------------|--------------------------------------|
--3--3--3--3--3--3--3--3--3--3--3--3--|--3--3--1--1--1--1--1--1--1--1--1--1--|



--------------------------------------|--------------------------------------|
--------------------------------------|--------------------------------------|
--------------------------------------|--------------------------------------|
--1--1--1--1--1--1--5--5--5--5--5--5--|--5--5--5--5--5--5--5--5--5--5--1--1--|



--------------------------------------|-----------|
--------------------------------------|-----------|
--------------------------------------|-----------|
--1--1--1--1--1--1--1--1--1--1--1--1--|--1--1--3--|



--------------------------------------|--------------------------------------|
--------------------------------------|--------------------------------------|
--------------------------------------|--------------------------------------|
--3--3--3--3--3--3--3--3--3--3--3--3--|--3--3--3--1--1--1--1--1--1--1--1--1--|



--------------------------------------|--------------------------------------|
--------------------------------------|--------------------------------------|
--------------------------------------|--------------------------------------|
--1--1--1--1--1--1--1--5--5--5--5--5--|--5--5--5--5--5--5--5--5--5--5--5--1--|



--------------------------------------|----------|------|----------|
--------------------------------------|----------|------|----------|
--------------------------------------|----------|------|--2-------|
--1--1--1--1--1--1--1--1--1--1--1--1--|--1--1----|------|-----5----|



-----------------------------|------------------------------|
-----------------------------|------------------------------|
----2------------------------|--------------2---------------|
---------------5--3----------|----3--5-------------------2--|



----------------------------|-------------------------------|
----------------------------|-------------------------------|
----------------------------|-------------------------------|
----3----------------5------|------3--2------------5--3--2--|



-----------------------------|------------------------------|
-----------------------------|------------------------------|
-----------------------------|-----------2------------------|
--0----------2------3--------|----5-----------------5--3----|



-----------------------------|----------------------------|
-----------------------------|----------------------------|
--------------------2--------|----------------------------|
----------3--5---------------|------2----3----------------|



-----------------------------|-----------------------------------|
-----------------------------|-----------------------------------|
-----------------------------|-----------------------------------|
--5----------3--2------------|--------3--3--3--3--3--3--3--3--3--|



--------------------------------------|--------------------------------------|
--------------------------------------|--------------------------------------|
--------------------------------------|--------------------------------------|
--3--3--3--3--3--3--1--1--1--1--1--1--|--1--1--1--1--1--1--1--1--1--5--5--5--|



--------------------------------------|--------------------------------------|
--------------------------------------|--------------------------------------|
--------------------------------------|--------------------------------------|
--5--5--5--5--5--5--5--5--5--5--5--5--|--1--1--1--1--1--1--1--1--1--1--1--1--|



-----------|--------------------------------------|
-----------|--------------------------------------|
-----------|--------------------------------------|
--1--1--3--|--3--3--3--3--3--3--3--3--3--3--3--3--|



--------------------------------------|--------------------------------------|
--------------------------------------|--------------------------------------|
--------------------------------------|--------------------------------------|
--3--3--3--1--1--1--1--1--1--1--1--1--|--1--1--1--1--1--1--1--5--5--5--5--5--|



--------------------------------------|--------------------------------------|
--------------------------------------|--------------------------------------|
--------------------------------------|--------------------------------------|
--5--5--5--5--5--5--5--5--5--5--5--1--|--1--1--1--1--1--1--1--1--1--1--1--1--|



---------------------------|------------------|------------------|
---------------------------|------------------|------------------|
---------------------------|------------------|------------------|
--2--2-2-2-2-4--5--7--2----|------------------|------------------|



---------------------------|--------------|----------------------|
---------------------------|--------------|----------------------|
---------------------------|--------------|----------------------|
--4---4-4-4-5--4--2--4---4-|--4-4-5---7---|--3--3----------3--3--|



---------------------|----------------------------|----------------------|
---------------------|----------------------------|----------------------|
---------------------|----------------------------|----------------------|
------1----3--3------|------3--3-3-3-3-5--5-5-5-5-|--6--6----------6--6--|



---------------------|----------------------------|
---------------------|----------------------------|
---------------------|----------------------------|
------5----1--1------|------6--6-6-6-6-8--8-8-8-8-|



|-----------------------------------|----------------------------------|
|*----------------------------------|----------------------------------|
|*----------------------------------|----------------------------------|
|---2-2-2-2-2-2-4-4-5-5-7-7-2-2-2-2-|--2-2-2-4-4-5-5-7-2-2-2-2-2-2-4-4-|



----------------------------------|----------------------------------|
----------------------------------|----------------------------------|
----------------------------------|----------------------------------|
--5-5-7-7-2-2-2-2-2-2-2-4-4-5-5-7-|--4-4-4-4-4-4-5-5-4-4-2-2-4-4-4-4-|



---------------||--------------------------||
--------------*||--------------------------||
--------------*||--------------------------||
--4-4-5---7----||--3---3-3-3-3--6--5--3----||


Dark Tranquility albums
2005 Character
2002 Damage Done
2000 Haven
1999 Projector
1997 The Mind's I
1995 The Gallery
1993 Skydancer
Haven tabs
01The Wonders at Your Feet tabbass tab
04Feast of Burden tabbass tab
05Haven tabbass tab
07Fabric tabbass tab
09Rundown tabbass tab

 

1