Search tabs:
Browse artists: 0-9 | A | B | C | D | E | F | G | H | I | J | K | L | M | N | O | P | Q | R | S | T | U | V | W | X | Y | Z
/ Dashboard Confessional / A Mark, A Mission, A Brand, A Scar (2003) / Am I Missing bass tab

Dashboard Confessional - Am I Missing
A Mark, A Mission, A Brand, A Scar
Tabbed by Bagley
Standard Tuning
--From Low to High (E,A,D,G)


\___/ = Tie
  .   = Sticatto
  ~   = Vibrato
  ^   = Accent
  /   = Slide
  %   = Repeat
  :   = Repeat Sign


   1 2 3 4              1 + 2 + 3 4  1(2)+3+(4)
G|---------|-----|-----|--^--------|----------|
D|---------|--o/-|--o/-|--4-2-1---1|-.----.---|
A|-2-2-2-2-|--/o-|--/o-|2-------4--|-2---.22--|
E|---------|-----|-----|-----------|-----0----|

   1(2)+3+(4)  1(2)+3+(4)  1+(2)+3+(4)  1 2 3 4
G|-----------|-----------|------------|---------|
D|-.----.----|------.----|-..----.----|-.-.-.-.-|
A|-4---.44---|-7---.77---|-66---.66---|-2-2-2-2-|
E|-----0-----|-----0-----|------0-----|---------|
Repeat the two's until the chorus

Chorus
             1(2)3(4)   1(2)3(4)   1(2)3(4)   1(2)3(4)
G|----|----|----------|----------|----------|----------|
D|o---|----|----------|----------|----------|----------|
A|o---|----|-7---6----|-4---2----|----------|-----4----|
E|-4--|(4)-|----------|----------|-4---6----|-7--------|
    \__/

 __1st__________________  ____2nd____________
|  1(2 3 4)+   1+2+3+4+  |1(2)3(4)  1(2)3(4)
G|-----------|-----------|---------|---------|
D|-----------|----------o|---------|---------|
A|-7.------2/|-77776666-o|-----4---|-6---7---|
E|-----------|-----------|-7-------|---------|


Bridge
   W     W   W    W
G|-----|---|---|-----|---------------------------------|
D|-----|---|---|-----|---------------------------------|
A|-9---|-9-|-2-|--2--|----Rest for 4 Measures----------|
E|--\___/--|--\__/---|---------------------------------|

Verse 2
   1 2 3 4       1(2)+3(4)+  1(2)+3(4)+  1(2)+3(4)+
G|---------|---|-----------|-----------|-----------|
D|-.-.-.-.-|---|-----------|-----------|-----------|
A|-2-2-2-2-|x4-|-2----2----|-4----4----|-7----7----|
E|---------|---|-----0----0|-----0----0|-----0----0|
   1(2)+3(4)+  1 2 3 4
G|-----------|---------|--------|
D|-----------|-.-.-.-.-|--------|
A|-6----6----|-2-2-2-2-|-x8-----|
E|-----0----0|---------|--------|


Chorus
             1(2)3(4)   1(2)3(4)   1(2)3(4)   1(2)3(4)
G|----|----|----------|----------|----------|----------|
D|o---|----|----------|----------|----------|----------|
A|o---|----|-7---6----|-4---2----|----------|-----4----|
E|-4--|(4)-|----------|----------|-4---6----|-7--------|
    \__/

 __1st__________________  ____2nd____________
|  1(2 3 4)+   1+2+3+4+  |1(2)3(4)  1(2)3(4)
G|-----------|-----------|---------|---------|
D|-----------|----------o|---------|---------|
A|-7.------2/|-77776666-o|-----4---|-6---7---|
E|-----------|-----------|-7-------|---------|


Bridge
   W     W   W    W
G|-----|---|---|-----|---------------------------------|
D|-----|---|---|-----|---------------------------------|
A|-9---|-9-|-2-|--2--|----Rest for 4 Measures----------|
E|--\___/--|--\__/---|---------------------------------|


Verse 3 - This one's a little tougher, rythmically
I think I have it right for the most part.

   1+2 3 4+ 1 2 3 4+ 1+2 3 4+ 1+2 3 4+  1(2)+3(4)+
G|---------|--------|--------|--------|-----------|
D|---.-.---|.-.-.---|--.-.---|--------|-----------|
A|-2-2-2-2-|2-2-2-2-|2-2-2-2-|2-2-2-2-|-2----2----|
E|--0-----0|-------0|-0-----0|-0-----0|-----0----0|

  1(2)+3(4)+ 1(2)+3(4)+ 1(2)+3(4)+
G|----------|----------|----------|---------|
D|----------|----------|----------|o.-.-.-.o|
A|4----4----|7----7----|6----6----|o2-2-2-2o|x3
E|----0----0|----0----0|----0----0|---------|

  1 + 2 + 3 4  1 2 3 4
G|--^--------|---------|
D|--4-2-1---1|o.-.-.-.o|
A|2-------4--|o2-2-2-2o|x4
E|-----------|---------|

Chorus - A tiny bit different

             1(2)3(4)   1(2)3(4)   1(2)3(4)   1(2)3(4)
G|----|----|----------|----------|----------|----------|
D|o---|----|----------|----------|----------|----------|
A|o---|----|-7---6----|-4---2----|----------|-----4----|
E|-4--|(4)-|----------|----------|-4---6----|-7--------|
    \__/

 __1st__________________  ____2nd____________
|  1(2 3 4)+   1+2+3+4+  |1(2)3(4)  1(2)3(4)
G|-----------|-----------|---------|---------|
D|-----------|----------o|---------|---------|
A|---------2/|-77776666-o|-----4---|-6---7---|
E|-0.--------|-----------|-7-------|---------|
   |__Right here

Bridge
   W     W   W    W
G|-----|---|---|-----|---------------------------------|
D|-----|---|---|-----|---------------------------------|
A|-9---|-9-|-2-|--2--|----Rest for 4 Measures----------|
E|--\___/--|--\__/---|---------------------------------|

Outro
   W   H  H   W   H  H
G|---|------|---|------|-----------|
D|-4-|-1--2-|o--|----2o|-----------|
A|---|------|o2-|-4---o|x4---------|
E|---|------|---|------|-----------|

   W   H  H   W   H  H
G|---|------|---|------|-----------|
D|-4-|-1--2-|o--|----2o|-----------|
A|---|------|o2-|-4---o|x4---------|
E|---|------|---|------|-----------|

That's all folks.  Some parts may be a tiny bit inaccurate on the timing,
but I'm pretty sure that I got the notation correct.

Any questions or corrections, email me at Bagley_the_drummer@hotmail.com

Later


Dashboard Confessional albums
2003 A Mark, A Mission, A Brand, A Scar
2002 MTV Unplugged
2001 The Places You Have Come to Fear the Most
2000 The Swiss Army Romance
A Mark, A Mission, A Brand, A Scar tabs
01Hands Down tabbass tab
02Rapid Hope Loss tabbass tab
03As Lovers Go tabbass tab
04Carry This Picture tabbass tab
05Bend and Not Break tabbass tab
06Ghost of a Good Thing tabbass tab
07Am I Missing tabbass tab
08Morning Calls tabbass tab
09Carve Your Heart Out Yourself tabbass tab
10So Beautiful tabbass tab
11Hey Girl tabbass tab
12If You Can't Leave It Be, Might as Well Make It Bleed tabbass tab
13Several Ways to Die Trying tabbass tab

 

1