Search tabs:
Browse artists: 0-9 | A | B | C | D | E | F | G | H | I | J | K | L | M | N | O | P | Q | R | S | T | U | V | W | X | Y | Z
/ Dashboard Confessional / A Mark, A Mission, A Brand, A Scar (2003) / Bend and Not Break bass tab

dashboard confessional - bend and not break
tabbed by : john james
tuning: gb-db-ab-eb
intro: x4
G------------------------------------------------------
D------------------------------------------------------
A----999999999--6666-----------------------------
E----------------------------7777--------------------

theres a change when the drums get harder
G---------------------------------------------------------
D---------------------------------------------------------- x2
A----------------6666----------------------------------
E---2212222------------7777---------------------------

verse: riff 1
"i catalog these steps now...." x4
G----------------------------------------------
D-----------------------------------------------
A----------------6666--------------------------
E----2212222----------7777------------------
verse: riff 2
"I'm talented at breathing..." x4
G---------------------------------
D------------------------9999---
A---99999999 6666------------
E-----------------------------------

harder drum riff x 2

verse riff 1: no bass
verse riff 2: x4
pre chorus:
"try to understand the old mistake..."
G------------------------------------------------------------666666666--
D-----------------------------------------------99999999------------------
A---9999-8888--66----66-----9999-6666-------------------------------
E------------------7-----7----------------------------------------------

Chorus:
"wont you hold me now..?"
G---------------------------------------------------------
D---------------------------------------------------------- X2
A-99999999-66666666--------------------------------
E----------------------------77777777-444444--------

Hard drum riff x2

verse riff 1: x4
verse riff 2: x4
prechorus
chorus x 2
slow bit (about 6 times)
G--------------------------------
D---------------------------------
A---------6~--------------------- x6
E---2~-----------0~----1~------

solo bit x
G---------------------------------------------------------
D---------------------------------------------------------- x6
A-----------------666666666--------------5555554---
E---22222222------------------7777777---------------

hard drum riff x 4

end with e----2222~


Dashboard Confessional albums
2003 A Mark, A Mission, A Brand, A Scar
2002 MTV Unplugged
2001 The Places You Have Come to Fear the Most
2000 The Swiss Army Romance
A Mark, A Mission, A Brand, A Scar tabs
01Hands Down tabbass tab
02Rapid Hope Loss tabbass tab
03As Lovers Go tabbass tab
04Carry This Picture tabbass tab
05Bend and Not Break tabbass tab
06Ghost of a Good Thing tabbass tab
07Am I Missing tabbass tab
08Morning Calls tabbass tab
09Carve Your Heart Out Yourself tabbass tab
10So Beautiful tabbass tab
11Hey Girl tabbass tab
12If You Can't Leave It Be, Might as Well Make It Bleed tabbass tab
13Several Ways to Die Trying tabbass tab

 

1