Search tabs:
Browse artists: 0-9 | A | B | C | D | E | F | G | H | I | J | K | L | M | N | O | P | Q | R | S | T | U | V | W | X | Y | Z
/ Dashboard Confessional / A Mark, A Mission, A Brand, A Scar (2003) / Several Ways to Die Trying bass tab

Half a step down(eb,ab,db,gb,bb,eb)

Intro (guitar 1)
E------------------------------------------------------------------
B------------------------------------------------------------------
G-------9-------------------------------------------------------9----
D-------9----------------------6--------------------------------9----
A-------7-------7-6---------------7--7/9-7-7/9-7-7/9------------7-(slides same on Gb)
E----0--7-----7-------------7------------------------8-7----0---7----


E-----------------------------------------------------------------
B-----------------9--9--9--9--9-----------------------------------
G-----------------9--9--9--9--9--9--9-----------------------------
D-------------6---9--9--9--9--9--9--9-----------------------------
A------7-6-----------------------7--7---7/9-7-7/9-7-7/9-----------
E----7------7-----------------------------------------8-7---------

Guitar 2- just strum around with Eb5

Pre Chorus(Listen for chord changes)
E----------------------------------------------------------------
B----------------------------------------------------------------
G----9--9-----13--11--9--------11--9-----------------------------
D----9--9--7--13--11--9--7--9--11--9-----------------------------
A----7--6--7--11--9---7--7--9--9---7-----------------------------
E----------5-------------5--7------------------------------------

Chorus(listen again for chord changes)(only rhythm written so you can concentrate on singing)
E----------------------------------------------------------------
B----------------------------------------------------------------
G---9-----14----9----11---9--------------------------------------
D---9-----14----9----11---9--------------------------------------
A---7-----12----7----9----7--------------------------------------
E----------------------------------------------------------------


Breakdown Part
E----------------------------------------------------------------
B----------------------------------------------------------------
G--------9--9----------------------------------------------------
D-----7--9--9--9-------------------------------------------------
A-----7--7--6--9-------------------------------------------------
E-----5--------7-------------------------------------------------


Outro
E--------------------------------------------------------------
B--------------------------------------------------------------
G--------------------------------------------------------------(double plucking
D-----9--11--9--7--6-------------------------------------------
A--7------------------7--9--7----------------------------------
E--------------------------------------------------------------

End (x2)
E----------------------------------------------------------------
B----------------------------------------------------------------
G----------------------------------------------------------------
D----------------------------------------------------------------
A--7--11--9--11--9--7--7--6--7-----11--9--11--9--7--11--12--14---(repeat on gb w/bends where needed)
E----------------------------------------------------------------

-Stig-


Dashboard Confessional albums
2003 A Mark, A Mission, A Brand, A Scar
2002 MTV Unplugged
2001 The Places You Have Come to Fear the Most
2000 The Swiss Army Romance
A Mark, A Mission, A Brand, A Scar tabs
01Hands Down tabbass tab
02Rapid Hope Loss tabbass tab
03As Lovers Go tabbass tab
04Carry This Picture tabbass tab
05Bend and Not Break tabbass tab
06Ghost of a Good Thing tabbass tab
07Am I Missing tabbass tab
08Morning Calls tabbass tab
09Carve Your Heart Out Yourself tabbass tab
10So Beautiful tabbass tab
11Hey Girl tabbass tab
12If You Can't Leave It Be, Might as Well Make It Bleed tabbass tab
13Several Ways to Die Trying tabbass tab

 

1