Search tabs:
Browse artists: 0-9 | A | B | C | D | E | F | G | H | I | J | K | L | M | N | O | P | Q | R | S | T | U | V | W | X | Y | Z
/ Dashboard Confessional / The Places You Have Come to Fear the Most (2001) / Saints and Sailors bass tab

Dashboard Confessional - Saints And Sailors
Submitted By: hoobastank_182__
EMail: no_parking182@hotmail.com


Standard Tuning: E A D G

Intro: This is where I say I've had enough...
G|-----------------------------------------------------------|
D|-----------------------------------------------------------|
A|---4--444---4----------------------------------------------|
E|-------------4---4--444---4---6666---4444---2222-2222------|

Verse: Waiting here with hopes the phone will ring...
G|-----------------------------------------------------------|
D|-----------------------------------------------------------|
A|---4-444-4--4-----------------4-444-4--4-------------------|
E|-------------2--222---444---------------2--22--666--444----|

Bridge: Dont be a liar...
G|-----------------------------------------------------------|
D|-----------------------------------------------------------|
A|-----------------------------444---------------------------|
E|---6666-6666----7777-7777---------44444----222--44444------|

G|-----------------------------------------------------------|
D|-----------------------------------------------------------|
A|-----------------------------444---------------------------|
E|---6666-6666----7777-7777---------44444----2>--------------|

Im not laughing... Your not Leaving...
G|-----------------------------------------------------------|
D|-----------------------------------------------------------|
A|-----------------------------------------------------------|
E|---6666-6666---4444-4444---2222-2222---4444-4444-----------|

G|-----------------------------------------------------------|
D|-----------------------------------------------------------|
A|-----------------------------------------------------------|
E|---6666-6666---4444-4444---2>------------------------------|


Dashboard Confessional albums
2003 A Mark, A Mission, A Brand, A Scar
2002 MTV Unplugged
2001 The Places You Have Come to Fear the Most
2000 The Swiss Army Romance
The Places You Have Come to Fear the Most tabs
01The Brilliant Dance tabbass tab
02Screaming Infidelities tabbass tab
03The Best Deceptions tabbass tab
04This Ruined Puzzle tabbass tab
05Saints and Sailors tabbass tab
06The Good Fight tabbass tab
07Standard Lines tabbass tab
08Again I Go Unnoticed tabbass tab
09The Places You Have Come to Fear the Most tabbass tab
10This Bitter Pill tabbass tab

 

1