Search tabs:
Browse artists: 0-9 | A | B | C | D | E | F | G | H | I | J | K | L | M | N | O | P | Q | R | S | T | U | V | W | X | Y | Z
/ Dashboard Confessional / The Swiss Army Romance (2000) / Turpentine Chaser bass tab

Turpentine Chasers
Dashboard Confessional
The Swiss army Romance
Tunning: Standard
Tabbed by Kyle Cool Dude

Honestly there is no base in this song but it’s a great song so I decided to make a base line for it…some parts don’t seem right But just play along with the song it goes with the main sound…so yeah

Verse
G:--------------------------------------------------------------------
D:-0-0-4-7-7-7-4-4-4-2-2-2--------------------------------------------
A:--------------------------------------------------------------------
E:--------------------------------------------------------------------

After Verse
G:--------------------------------------------------------------------
D:-0-5-4-0-5-4-0-5-4-0-5-4--------------------------------------------
A:--------------------------------------------------------------------
E:--------------------------------------------------------------------

Chorus
G:---------------------------------------------------------------------
D:-7-7-7-7-5-4-7-5-5-5-4-0-2-4-5-4-2-4-4-------------------------------
A:---------------------------------------------------------------------
E:---------------------------------------------------------------------

G:---------------------------------------------------------------------
D:-0-0-4-4-5-5-7-7-4-5-2-2-2-2-2---------------------------------------
E:---------------------------------------------------------------------
A;---------------------------------------------------------------------

Ending
G:----------------------------------------------------------------------
D:-7-5-4-4-4-4-2-2-2-2-2-2-7-7-7-7-7-7h9p7-5-5-5-5-5-5------------------
A:----------------------------------------------------------------------
E:----------------------------------------------------------------------


Order
VerseX4
After verseX1
ChorusX2
VerseX4
After verse X1
ChorusX2
EndingX8


Dashboard Confessional albums
2003 A Mark, A Mission, A Brand, A Scar
2002 MTV Unplugged
2001 The Places You Have Come to Fear the Most
2000 The Swiss Army Romance
The Swiss Army Romance tabs
01Screaming Infidelities tabbass tab
02The Sharp Hint Of New Tears tabbass tab
03Living In Your Letters tabbass tab
04The Swiss Army Romance tabbass tab
05Turpentine Chaser tabbass tab
06A Plain Morning tabbass tab
07Age Six Racer tabbass tab
08Again I Go Unnoticed tabbass tab
09Ender Will Save Us All tabbass tab
10Shirts And Gloves tabbass tab

 

1