Search tabs:
Browse artists: 0-9 | A | B | C | D | E | F | G | H | I | J | K | L | M | N | O | P | Q | R | S | T | U | V | W | X | Y | Z
/ Death Cab for Cutie / Transatlanticism (2003) / The New Year bass tab

Standard tuning
Any comments send to freakofnature29@hotmail.com
Intro 0.08-0.38
G[-----------------------------------------------------------------------------
D[---------------10-7----------------------------------------------------------
A[--------5-8------------------------------------------------------------------
E[--5-8------------------------------------------------------------------------

"This is The New Year" 0.38-1.08 then from 1.28-1.58 and 3.03-3.33
G[-----------------------------------------------------------------------------
D[-----------------------------------------------------------------------------
A[-----------------------------------------------------------------------------
E[--5-8---8-5------------------------------------------------------------------


This is The easiest song to play and its fun to sing and play at the same time
so just have fun and be cool.


Death Cab for Cutie albums
2005 Plans
2003 Transatlanticism
2002 You Can Play These Songs With Chords
2001 The Photo Album
2000 Forbidden Love [EP]
2000 We Have the Facts and We're Voting Yes
1999 Something About Airplanes
Transatlanticism tabs
01The New Year tabbass tab
02Lightness tabbass tab
03Title and Registration tabbass tab
04Expo '86 tabbass tab
05The Sound of Settling tabbass tab
06Tiny Vessels tabbass tab
07Transatlanticism tabbass tab
08Passenger Seat tabbass tab
09Death of an Interior Decorator tabbass tab
10We Looked Like Giants tabbass tab
11A Lack of Color tabbass tab

 

1