Search tabs:
Browse artists: 0-9 | A | B | C | D | E | F | G | H | I | J | K | L | M | N | O | P | Q | R | S | T | U | V | W | X | Y | Z
/ Die Toten Hosen / Opium Furs Volk (1996) / Paradies bass tab

Paradies


Bass

G||------------------|------------------|------------------|------------------|
D||------------------|------------------|------------------|------------------|
A||------------------|------------------|------------------|------------------|
E||------------------|------------------|------------------|------------------|



------------------|------------------|------------------|------------------|
------------------|------------------|------------------|------------------|
------------------|------------------|------------------|------------------|
------------------|------------------|------------------|------------------|



------------------|------------------|------------------|------------------|
------------------|------------------|------------------|------------------|
------------------|------------------|------------------|------------------|
------------------|------------------|------------------|------------------|



------------------|------------------|------------------|------------------|
------------------|------------------|------------------|------------------|
------------------|------------------|------------------|------------------|
------------------|------------------|------------------|------------------|



------------------|------------------|------------------|------------------|
------------------|------------------|------------------|------------------|
------------------|------------------|------------------|------------------|
------------------|------------------|------------------|------------------|



------------------|------------------|------------------|------------------|
------------------|------------------|------------------|------------------|
------------------|------------------|------------------|------------------|
------------------|------------------|------------------|------------------|



------------------|------------------|---------------------|
------------------|------------------|---------------------|
------------------|------------------|---------------------|
------------------|------------------|--5------5--5--------|



---------------------|---------------------|---------------------|
---------------------|---------------------|---------------------|
---------------------|---------------------|--5------5--5--------|
--3------3--3--------|--5------5--5--------|---------------------|



---------------------|---------------------|---------------------|
---------------------|---------------------|---------------------|
---------------------|---------------------|---------------------|
--5------5--5--------|--3------3--3--------|--5------5--1--------|



----------------------|---------------------|---------------------|
----------------------|---------------------|---------------------|
--0------0--0----2----|--3------3--3--------|---------------------|
----------------------|---------------------|--3------3--3--------|



---------------------|---------------------|---------------------|
---------------------|---------------------|---------------------|
---------------------|---------------------|--3------3--3--------|
--5------5--5--------|--0------0--0--------|---------------------|



---------------------|---------------------|---------------------|
---------------------|---------------------|---------------------|
---------------------|---------------------|---------------------|
--3------3--3--------|--5------5--1--------|--5------5--5--------|



--------------------------|--------------------------|
--------------------------|--------------------------|
--------------------------|--------------------------|
--5--5--5--5--5--5--5--5--|--3--3--3--3--3--3--3--3--|



--------------------------|--------------------------|
--------------------------|--------------------------|
--------------------------|--3--3--3--3--2--2--2--2--|
--1--1--1--1--1--1--1--1--|--------------------------|



--------------------------|--------------------------|--------------------|
--------------------------|--------------------------|--------------------|
--------------------------|--------------------------|--------------------|
--5--5--5--5--5--5--5--5--|--3--3--3--3--3--3--3--3--|--1--------0--------|



-------------------|--------------------------|--------------------------|
-------------------|--------------------------|--------------------------|
-------------------|--------------------------|--------------------------|
--5----------------|--5--5--5--5--5--5--5--5--|--3--3--3--3--3--3--3--3--|



--------------------------|--------------------------|
--------------------------|--------------------------|
--------------------------|--5--5--5--5--5--5--5-----|
--5--5--5--5--5--5--5--5--|-----------------------5--|



--------------------------|--------------------------|
--------------------------|--------------------------|
--------------------------|--------------------------|
--5--5--5--5--5--5--5--5--|--3--3--3--3--3--3--3--3--|



--------------------------|--------------------------|
--------------------------|--------------------------|
--------------------------|--------------------------|
--5--5--5--5--1--1--1--1--|--5--5--5--5--5--5--5--5--|



--------------------------|--------------------------|
--------------------------|--------------------------|
--3--3--3--3--3--3--3-----|--------------------------|
-----------------------3--|--3--3--3--3--3--3--3--3--|



--------------------------|--------------------------|
--------------------------|--------------------------|
--------------------------|--------------------------|
--5--5--5--5--5--5--5--5--|--0--0--0--0--0--0--0--0--|



--------------------------|--------------------------|
--------------------------|--------------------------|
--3--3--3--3--3--3--3-----|--------------------------|
-----------------------3--|--3--3--3--3--3--3--3--3--|



--------------------------|--------------------------|---------------------|
--------------------------|--------------------------|---------------------|
--------------------------|--------------------------|---------------------|
--5--5--5--5--1--1--1--1--|--5--5--5--5--5--5--5--5--|--5------5--5--------|



---------------------|---------------------|---------------------|
---------------------|---------------------|---------------------|
---------------------|---------------------|--5------5--5--------|
--3------3--3--------|--5------5--5--------|---------------------|



---------------------|---------------------|---------------------|
---------------------|---------------------|---------------------|
---------------------|---------------------|---------------------|
--5------5--5--------|--3------3--3--------|--5------5--1--------|



---------------------|---------------------|---------------------|
---------------------|---------------------|---------------------|
---------------------|--3------3--3--------|---------------------|
--5------5--5--------|---------------------|--3------3--3--------|



---------------------|---------------------|---------------------|
---------------------|---------------------|---------------------|
---------------------|---------------------|--3------3--3--------|
--5------5--5--------|--0------0--0--------|---------------------|



---------------------|---------------------|---------------------|
---------------------|---------------------|---------------------|
---------------------|---------------------|---------------------|
--3------3--3--------|--5------5--1--------|--5------5--5--------|



--------------------------|--------------------------|
--------------------------|--------------------------|
--------------------------|--------------------------|
--5--5--5--5--5--5--5--5--|--3--3--3--3--3--3--3--3--|



--------------------------|--------------------------|
--------------------------|--------------------------|
--8--8--8--8--8--8--8--8--|--3--3--3--3--2--2--2--2--|
--------------------------|--------------------------|



--------------------------|--------------------------|
--------------------------|--------------------------|
--------------------------|--------------------------|
--5--5--5--5--5--5--5--5--|--3--3--3--3--3--3--3--3--|



--------------------------|--------------------------|
--------------------------|--------------------------|
--------------------------|--------------------------|
--1--1--1--1--1--1--1--1--|--3--3--3--3--3--3--3--3--|



--------------------------|--------------------------|
--------------------------|--------------------------|
--------------------------|--------------------------|
--5--5--5--5--5--5--5--5--|--3--3--3--3--3--3--3--3--|



--------------------------|--------------------------|
--------------------------|--------------------------|
--8--8--8--8--8--8--8--8--|--3--3--3--3--2--2--2--2--|
--------------------------|--------------------------|



--------------------------|--------------------------|--------------------|
--------------------------|--------------------------|--------------------|
--------------------------|--------------------------|--------------------|
--5--5--5--5--5--5--5--5--|--3--3--3--3--3--3--3--3--|--1--------0--------|



---------------------|---------------------|---------------------|
---------------------|---------------------|---------------------|
---------------------|---------------------|---------------------|
--5------5--5--------|--5------5--5--------|--3------3--3--------|



---------------------|---------------------|---------------------|
---------------------|---------------------|---------------------|
--5------5--5--------|---------------------|---------------------|
---------------------|--1------1--1--------|--5------5--5--------|



---------------------|-------------------|---------------------|
---------------------|-------------------|---------------------|
---------------------|-------------------|---------------------|
--3------3--3--------|--1----------------|--1------1--1--------|



---------------------|---------------------|---------------------|
---------------------|---------------------|---------------------|
---------------------|---------------------|--5------5--5--------|
--5------5--5--------|--3------3--3--------|---------------------|



---------------------|---------------------|---------------------|
---------------------|---------------------|---------------------|
---------------------|---------------------|---------------------|
--1------1--1--------|--5------5--5--------|--3------3--3--------|



--------------------------|--------------------------|
--------------------------|--------------------------|
--------------------------|--------------------------|
--1--1--1--1--1--1--1--1--|--1--1--1--1--1--1--1--1--|



--------------------------|--------------------------|
--------------------------|--------------------------|
--------------------------|--------------------------|
--5--5--5--5--5--5--5--5--|--3--3--3--3--3--3--3--3--|



--------------------------|--------------------------|
--------------------------|--------------------------|
--------------------------|--3--3--3--3--2--2--2--2--|
--1--1--1--1--1--1--1--1--|--------------------------|



--------------------------|--------------------------|
--------------------------|--------------------------|
--------------------------|--------------------------|
--5--5--5--5--5--5--5--5--|--3--3--3--3--3--3--3--3--|



--------------------------|--------------------------|
--------------------------|--------------------------|
--------------------------|--------------------------|
--1--1--1--1--1--1--1--1--|--3--3--3--3--3--3--3--3--|



--------------------------|--------------------------|
--------------------------|--------------------------|
--------------------------|--------------------------|
--5--5--5--5--5--5--5--5--|--3--3--3--3--3--3--3--3--|



--------------------------|--------------------------|
--------------------------|--------------------------|
--------------------------|--3--3--3--3--2--2--2--2--|
--1--1--1--1--1--1--1--1--|--------------------------|



--------------------------|--------------------|--------------------|
--------------------------|--------------------|--------------------|
--------------------------|--------------------|--------------------|
--5--5--5--5--5--5--5--5--|--3--------3--------|--1--------0--------|



-------------------|------------------||
-------------------|------------------||
-------------------|------------------||
--5----------------|------------------||


Die Toten Hosen albums
2004 Zurück zum Glück
2001 Unsterblich
2001 Crash Landing
1996 Opium Furs Volk
1996 Im Auftrag Des Herrn
1995 Love, Peace & Money
1994 Bis Zim Bitteren
1992 Learning English: Lesson I
Opium Furs Volk tabs
06Nichts Bleibt Fur Die Ewigkeit tabbass tab
09Bonnie and Clyde tabbass tab
13Paradies tabbass tab
14Und Wir Leben tabbass tab
17Viva la Revolution tabbass tab
18Zehn Kleine Jagermeister tabbass tab

 

1