Search tabs:
Browse artists: 0-9 | A | B | C | D | E | F | G | H | I | J | K | L | M | N | O | P | Q | R | S | T | U | V | W | X | Y | Z
/ Die Toten Hosen / Opium Furs Volk (1996) / Und Wir Leben bass tab

Und wir Leben


                                                                 Die Toten Hosen
Bass




G||------------------|-------------------|-------------------|
D||------------------|-------------------|-------------------|
A||------------------|--------------5/---|--7----------------|
E||------------------|-------------------|-------------------|



-------------------|-------------------|------------------|-------------------|
-------------------|-------------------|------------------|-------------------|
-------------------|-------------------|------------------|-------------------|
--------------5/---|--0----------------|------------------|--0----------------|



-------------------|-------------------|--------------------|
-------------------|-------------------|--------------------|
-------------------|-------------------|----------5----5----|
----------------4/-|--5----------------|--------------------|



-------------------|--------------------|--------------------------|
-------------------|--------------------|--------------------------|
-------------------|----------5----5----|--7--7--7--7--7--7--7--7--|
--5----------------|--------------------|--------------------------|



--------------------------|--------------------------|
--------------------------|--------------------------|
--7--7--7--7--7--7--7--7--|--7--7--7--7--7--7--7--7--|
--------------------------|--------------------------|



--------------------------|--------------------------|------------------------|
--------------------------|--------------------------|------------------------|
--7--7--7--7--7--7--7--7--|--------------------------|--------------5----5----|
--------------------------|--5--5--5--5--5--5--5--5--|--5--5--5--5------------|



--------------------------|------------------------|--------------------------|
--------------------------|------------------------|--------------------------|
--------------------------|--------------5----5----|--7--7--7--7--7--7--7--7--|
--5--5--5--5--5--5--5--5--|--5--5--5--5------------|--------------------------|



--------------------------|--------------------------|
--------------------------|--------------------------|
--7--7--7--7--7--7--7--7--|--------------------------|
--------------------------|--5--5--5--5--5--5--5--5--|



--------------------------|--------------------------|
--------------------------|--------------------------|
--------------5--5--5--5--|--7--7--7--7--7--7--7--7--|
--5--5--5--5--------------|--------------------------|



--------------------------|--------------------------|
--------------------------|--------------------------|
--3--3--3--3--3--3--3--3--|--------------------------|
--------------------------|--5--5--5--5--5--5--5--5--|



--------------------------|--------------------------|
--------------------------|--------------------------|
--------------------------|--7--7--7--7--7--7--7--7--|
--5--5--5--5--5--5--5--5--|--------------------------|



--------------------------|--------------------------|------------------------|
--------------------------|--------------------------|------------------------|
--7--7--7--7--7--7--7--7--|--------------------------|--------------5----5----|
--------------------------|--5--5--5--5--5--5--5--5--|--5--5--5--5------------|



--------------------------|--------------------------|
--------------------------|--------------------------|
--7--7--7--7--7--7--7--7--|--7--7--7--7--7--7--7--7--|
--------------------------|--------------------------|



--------------------------|--------------------------|
--------------------------|--------------------------|
--------------------------|--------------5--5--5--5--|
--5--5--5--5--5--5--5--5--|--5--5--5--5--------------|



--------------------------|--------------------------|
--------------------------|--------------------------|
--7--7--7--7--7--7--7--7--|--3--3--3--3--3--3--3--3--|
--------------------------|--------------------------|



--------------------------|---------------------|--------------------|
--------------------------|---------------------|--------------------|
--------------------------|-----------5----5----|--7-----------------|
--5--5--5--5--5--5--5--5--|--5------------------|---------------2/---|



-------------------|-------------------|------------------|-------------------|
-------------------|-------------------|------------------|-------------------|
-------------------|-------------------|------------------|-------------------|
--3----------------|--5----------------|------------------|--0----------------|



-------------------|-------------------|------------------|
-------------------|-------------------|------------------|
-------------------|-------------------|------------------|
--3----------------|--5----------------|------------------|



--------------------------|--------------------------|
--------------------------|--------------------------|
--7--7--7--7--7--7--7--7--|--7--7--7--7--7--7--7--7--|
--------------------------|--------------------------|



--------------------------|------------------------|--------------------------|
--------------------------|------------------------|--------------------------|
--------------------------|--------------5----5----|--7--7--7--7--7--7--7--7--|
--5--5--5--5--5--5--5--5--|--5--5--5--5------------|--------------------------|



--------------------------|--------------------------|
--------------------------|--------------------------|
--7--7--7--7--7--7--7--7--|--------------------------|
--------------------------|--5--5--5--5--5--5--5--5--|



--------------------------|--------------------------|
--------------------------|--------------------------|
--------------5--5--5--5--|--7--7--7--7--7--7--7--7--|
--5--5--5--5--------------|--------------------------|



--------------------------|--------------------------|---------------------|
--------------------------|--------------------------|---------------------|
--3--3--3--3--3--3--3--3--|--------------------------|-----------5----5----|
--------------------------|--5--5--5--5--5--5--5--5--|--5------------------|



--------------------|-------------------|-------------------|------------------|
--------------------|-------------------|-------------------|------------------|
--7-----------------|-------------------|-------------------|------------------|
---------------2/---|--3----------------|--5----------------|------------------|



-------------------|-------------------|-------------------|-------------------|
-------------------|-------------------|-------------------|-------------------|
-------------------|--3----------------|-------------------|-------------------|
--0----------------|-------------------|--3----------------|--5----------------|



----------------------|----------------------|----------------------|
----------------------|----------------------|----------------------|
----------------------|----------------------|----------------------|
--5----5----4----4----|--3----3----2----2----|--7----7----6----6----|



----------------------|--------------------------|--------------------------|
----------------------|--------------------------|--------------------------|
----------------------|--5--5--5--5--4--4--4--4--|--3--3--3--3--2--2--2--2--|
--5----5----4----4----|--------------------------|--------------------------|



-------------------|----------------------|-------------------|
-------------------|----------------------|-------------------|
-------------------|--5----5----5----5----|--7----------------|
--1----------------|----------------------|-------------------|



--------------------|-------------------|-------------------|------------------|
--------------------|-------------------|-------------------|------------------|
--7-----------------|-------------------|-------------------|------------------|
---------------2/---|--3----------------|--5----------------|------------------|



-------------------|-------------------|-------------------|------------------|
-------------------|-------------------|-------------------|------------------|
-------------------|-------------------|-------------------|------------------|
--0----------------|--3----------------|--5----------------|------------------|



--------------------------|--------------------------|
--------------------------|--------------------------|
--7--7--7--7--7--7--7--7--|--7--7--7--7--7--7--7--7--|
--------------------------|--------------------------|



--------------------------|--------------------------|
--------------------------|--------------------------|
--7--7--7--7--7--7--7--7--|--7--7--7--7--7--7--7--7--|
--------------------------|--------------------------|



--------------------------|------------------------|--------------------------|
--------------------------|------------------------|--------------------------|
--------------------------|--------------5----5----|--------------------------|
--5--5--5--5--5--5--5--5--|--5--5--5--5------------|--5--5--5--5--5--5--5--5--|



------------------------|-------------------|---------------------|
------------------------|-------------------|---------------------|
--------------5----5----|-------------------|---------------------|
--5--5--5--5------------|--0----------------|----------0--0--0----|



-------------------|--------------------|-------------------|
-------------------|--------------------|-------------------|
-------------------|--------------------|--3----------------|
--5----------------|----------5----7----|-------------------|



-------------------|-------------------|---------------------|
-------------------|-------------------|---------------------|
--3----------------|--5----------------|--5--------5----5----|
-------------------|-------------------|---------------------|



--------------------|-------------------|-------------------|------------------|
--------------------|-------------------|-------------------|------------------|
--7-----------------|-------------------|-------------------|------------------|
---------------2/---|--3----------------|--5----------------|------------------|



-------------------|-------------------|-------------------|
-------------------|-------------------|-------------------|
-------------------|--3----------------|-------------------|
--0----------------|-------------------|--3----------------|



-------------------||
-------------------||
-------------------||
--5----------------||


Die Toten Hosen albums
2004 Zurück zum Glück
2001 Unsterblich
2001 Crash Landing
1996 Opium Furs Volk
1996 Im Auftrag Des Herrn
1995 Love, Peace & Money
1994 Bis Zim Bitteren
1992 Learning English: Lesson I
Opium Furs Volk tabs
06Nichts Bleibt Fur Die Ewigkeit tabbass tab
09Bonnie and Clyde tabbass tab
13Paradies tabbass tab
14Und Wir Leben tabbass tab
17Viva la Revolution tabbass tab
18Zehn Kleine Jagermeister tabbass tab

 

1