Search tabs:
Browse artists: 0-9 | A | B | C | D | E | F | G | H | I | J | K | L | M | N | O | P | Q | R | S | T | U | V | W | X | Y | Z
/ Dismember / Misanthropic (1997) / Misanthropic bass tab

C||-----------------------------------------|
G||-----------------------------------------|
D||*----------------------------------------|
A||*----------------------------------------|
E||---------7-7-7-10-10-10-10-10-10-------9-|
B||---0-0-0-------------------------8-8-8---|



---------------------------------------------|
---------------------------------------------|
---------------------------------------------|
---------------------------------------------|
--9-9-10-10-10-12-12-12----------9-9-9-10-10-|
------------------------10-10-10-------------|


                                       3x
---------------------------------------||-----------------------------|
---------------------------------------||-----------------------------|
--------------------------------------*||*----------------------------|
--------------------------------------*||*----------------------------|
--10-10-10-10-------6-6-6-7-7-7-9-9-9--||---7-----7-----10-----9--10--|
--------------7-7-7--------------------||------0-----0------0---------|



-----------------------------|----------------------------|
-----------------------------|----------------------------|
-----------------------------|----------------------------|
-----------------------------|----------------------------|
--------12-----10-----9--10--|--7-----7-----10-----9--10--|
--0--0------0------0---------|-----0-----0------0---------|



--------------------------||-----------------------------------------|
--------------------------||-----------------------------------------|
-------------------------*||*----------------------------------------|
--------------10----7----*||*----------------------------------------|
--------7-----------------||-------7-7-10-10-9-9-----7-7-12-12-10-10-|
--0--0-----0--------------||---0-0---------------0-0-----------------|



-------------------------------------------||-----------------------------|
-------------------------------------------||-----------------------------|
------------------------------------------*||*----------------------------|
------------------------------------------*||*----------------------------|
------7-7-10-10-9-9-10-10-12-12-10-10-9-9--||---7-----7-----10-----9--10--|
--0-0--------------------------------------||------0-----0------0---------|



-----------------------------|----------------------------|
-----------------------------|----------------------------|
-----------------------------|----------------------------|
-----------------------------|----------------------------|
--------12-----10-----9--10--|--7-----7-----10-----9--10--|
--0--0------0------0---------|-----0-----0------0---------|



--------------------------||-----------------------------------------|
--------------------------||-----------------------------------------|
-------------------------*||*----------------------------------------|
--------------10----7----*||*----------------------------------------|
--------7-----------------||---------7-7-7-10-10-10-10-10-10-------9-|
--0--0-----0--------------||---0-0-0-------------------------8-8-8---|



---------------------------------------------|
---------------------------------------------|
---------------------------------------------|
---------------------------------------------|
--9-9-10-10-10-12-12-12----------9-9-9-10-10-|
------------------------10-10-10-------------|


                                       3x
---------------------------------------||
---------------------------------------||
--------------------------------------*||
--------------------------------------*||
--10-10-10-10-------6-6-6-7-7-7-9-9-9--||
--------------7-7-7--------------------||



-----------------------------------------|
-----------------------------------------|
*----------------------------------------|
*----------------------------------------|
-------7-7-10-10-9-9-----7-7-12-12-10-10-|
---0-0---------------0-0-----------------|



-------------------------------------------||----------------------------|
-------------------------------------------||----------------------------|
------------------------------------------*||----------------------------|
------------------------------------------*||----------------------------|
------7-7-10-10-9-9-10-10-12-12-10-10-9-9--||--7-----7-----10-----9--10--|
--0-0--------------------------------------||-----0-----0------0---------|



-----------------------------|----------------------------|
-----------------------------|----------------------------|
-----------------------------|----------------------------|
-----------------------------|----------------------------|
--------12-----10-----9--10--|--7-----7-----10-----9--10--|
--0--0------0------0---------|-----0-----0------0---------|



-------------------------|----------------------------|
-------------------------|----------------------------|
-------------------------|----------------------------|
--------------10----7----|----------------------------|
--------7----------------|--7-----7-----10-----9--10--|
--0--0-----0-------------|-----0-----0------0---------|



-----------------------------|----------------------------|
-----------------------------|----------------------------|
-----------------------------|----------------------------|
-----------------------------|----------------------------|
--------12-----10-----9--10--|--7-----7-----10-----9--10--|
--0--0------0------0---------|-----0-----0------0---------|



-----------------------||-----------------------------------------|
-----------------------||-----------------------------------------|
-----------------------||*----------------------------------------|
-----------------------||*----------------------------------------|
--------7--------------||---------7-7-7-10-10-10-10-10-10-------9-|
--0--0-----0--5--------||---0-0-0-------------------------8-8-8---|



---------------------------------------------|
---------------------------------------------|
---------------------------------------------|
---------------------------------------------|
--9-9-10-10-10-12-12-12----------9-9-9-10-10-|
------------------------10-10-10-------------|



---------------------------------------||---------------------|
---------------------------------------||---------------------|
--------------------------------------*||*--------------------|
--------------------------------------*||*--------------------|
--10-10-10-10-------6-6-6-7-7-7-9-9-9--||---7-----------------|
--------------7-7-7--------------------||----------------8----|



-------------------|--------------------||
-------------------|--------------------||
-------------------|-------------------*||
-------------------|-------------------*||
----------5--------|--------------------||
-------------------|------7-------------||



------------------------------------------|
------------------------------------------|
*-----------------------------------------|
*-----------------------------------------|
---------7-7-7-9-9-9-10-10-10-10-10-10-10-|
---0-0-0----------------------------------|



-----------------------------------------|----------------------------------|
-----------------------------------------|----------------------------------|
-----------------------------------------|----------------------------------|
-----------------0-0-0-0-0-0-0-0-0-------|----------------------------------|
--10-10-10h10h10-------------------10h10h|--10------------------------------|
-----------------------------------------|-----8-8-8-8-8-8-8-8-8-7-7-7--0-0-|



-------------------------------------------|
-------------------------------------------|
-------------------------------------------|
-------------------------------------------|
----7-7-7-9-9-9-10-10-10-10-10-10-10-10-10-|
--0----------------------------------------|



----------------------------------------|--------------------------||
----------------------------------------|--------------------------||
--------------------------------------0-|--0-0-0-0-0-0-0-0--------*||
-----------7-7-7-7-7-7-7-7-7------------|-------------------------*||
--10h10h10-------------------10h10h10---|------------------9-9-9---||
----------------------------------------|--------------------------||



-------------------|------------------|----------------------|
-------------------|------------------|----------------------|
-------------------|------------------|----------------------|
-------------------|------------------|----------------------|
-------------------|------------------|----------------------|
--0----------------|------------------|--0----0----0----0----|



----------------------||-----------------------------|
----------------------||-----------------------------|
----------------------||*----------------------------|
-----------10----7----||*----------------------------|
----------------------||---7-----7-----10-----9--10--|
--0-------------------||------0-----0------0---------|



-----------------------------|----------------------------|
-----------------------------|----------------------------|
-----------------------------|----------------------------|
-----------------------------|----------------------------|
--------12-----10-----9--10--|--7-----7-----10-----9--10--|
--0--0------0------0---------|-----0-----0------0---------|



--------------------------||-------------------------------------------|
--------------------------||-------------------------------------------|
-------------------------*||*------------------------------------------|
--------------10----7----*||*------------------------------------------|
--------7-----------------||-------7-7-10-10-10-10-8-8-9-9-10-10-12-12-|
--0--0-----0--------------||---0-0-------------------------------------|



-----------------------------------------||-------------------------|
-----------------------------------------||-------------------------|
----------------------------------------*||*------------------------|
----------------------------------------*||*------------------------|
--------9-9-10-10-10-10-----6-6-7-7-9-9--||---7---------------------|
--10-10-----------------7-7--------------||--------------8----------|



-------------------------||------------------------||
-------------------------||------------------------||
------------------------*||------------------------||
------------------------*||------------------------||
--5----------------------||--7----------7----------||
-------------7-----------||------------------------||


Dismember albums
1997 Death Metal
1997 Misanthropic
1995 Massive Killing Capacity
1993 Indecent And Obscene
1991 Like An Ever Flowing Stream
Misanthropic tabs
01Misanthropic tabbass tab

 

1