Search tabs:
Browse artists: 0-9 | A | B | C | D | E | F | G | H | I | J | K | L | M | N | O | P | Q | R | S | T | U | V | W | X | Y | Z
/ The Eagles / On the Border (1974) / Already Gone bass tab

Eagles - Already Gone
                      From the album On The Border
                           Tabbed by Joe Weldinger
jweldinger@donet.com


       w       w     w     w     e  e  e  e  e  e  e  e   2x       Q    
G---|--r--||------|-----|-----|---------------------------||--||--------
D---|--e--||*--5--|-----|-----|--------------------------*||--||*--5----
A---|--s--||*-----|--5--|--3--|--3--3--3--3--3--3--3--3--*||--||*-------
E---|--t--||------|-----|-----|---------------------------||--||--------
                                                                        

    e  Q  e     Q  e  Q  e     Q  e  Q  e     e  e  e  e  e  e  e  e    
G------------|--------------|--------------|----------------------------
D---5--------|--------------|--------------|--------------5-----2--4----
A------5--5--|--5--5--------|--3--3--------|--3-----3--3-----3----------
E------------|--------5--5--|--------3--3--|-----3----------------------
                                                                        

       Q  e  Q  e     Q  e  Q  e     Q  e  Q  e     e  e  e  e  e  e    
G---|--------------|--------------|--------------|----------------------
D---|--5--5--------|--------------|--------------|----------------------
A---|--------5--5--|--5--5--------|--3--3--------|--3--------2--3--5----
E---|--------------|--------5--5--|--------3--3--|-----3--5-------------
                                                                        

    e  e   2x       q  q  q  e  e     q  q  q  e  e     e  e  e  e      
G----------||--||------------------|-----------------|------------------
D---2--4--*||--||*-----------------|-----4--7--9--7--|--------2--2------
A---------*||--||*-----2--5--7--5--|--5--------------|--3--3------------
E----------||--||---3--------------|-----------------|------------------
                                                                        

    e  e  e  e     e  e  e  e  e  e  e  e   4x      w     w     q  q    
G---------------|---------------------------||--||-----|-----|----------
D---5--5--7--5--|--------2--2--5--5--7--5--*||--||-----|-----|----------
A---------------|--3--3--------------------*||--||--3--|-----|-----0----
E---------------|---------------------------||--||-----|--3--|--1-------
                                                                        

    q  e  e     q  q  q  e  e           e  e  e  e  e  e  e  e     e    
G------------|-----------------||--||---------------------------|-------
D------------|-----------------||--||*--------2--2--5--5--7--5--|-------
A---3--5--3--|-----0--3--5--3--||--||*--3--3--------------------|-------
E------------|--1--------------||--||---------------------------|--3----
                                                                        

    e  e  e  e  e  e  e     e  e  e  e  e  e  e  e     e  e  e  e  e    
G------------------------|--------------------------|-------------------
D------------------------|--------------------------|-------------------
A------2--2--5--5--7--5--|--------0--0--3--3--5--3--|--------0--0--3----
E---3--------------------|--1--1--------------------|--1--1-------------
                                                                        

    e  e  e   8x                                                        
G-------------||--------------------------------------------------------
D------------*||--------------------------------------------------------
A---3--5--3--*||--------------------------------------------------------
E-------------||--------------------------------------------------------
                                                                        



========================================================================
==                       TABLATURE EXPLANATION                        ==
========================================================================

----------                ----------                ----t---
----5h8--- Hammeron       ----(8)--- Ghost          ----6--- Tap
----------                ---------- Note           --------
----5p8--- Pulloff        ----------                --------

----------                ----------                -----p--
----5/8--- Slide Up       -----x---- Dead           -----7-- Pop
----------                ---------- Note           --s-----
----5\8--- Slide Down     ----------                --5----- Slap 

----------                ||------|| Repeat         --------
----5~~~-- Vibrato        ||*----*||                ---5^--- Bend
----------                ||*----*||                --------
----------                ||------||                --------

----------                ----------                --------
-4:------- Time           ----------                --------
-4:------- Signature      ----------                --------
----------                ----------                --------

Rhythm:
  w = whole note            W = dotted whole
  h = half note             H = dotted half
  q = quarter note          Q = dotted quarter
  e = eighth note           E = dotted eighth
  s = sixteenth note        S = dotted sixteenth
  t = 32nd note             T = dotted 32nd
  x = 64th note             X = dotted 64th
  ^ = triplet

========================================================================
==               Created with BUCKET O' TAB for Windows               ==
==                  For more info email gse@his.com                   ==
========================================================================


The Eagles albums
1994 Hell Freezes Over
1979 The Long Run
1976 Hotel California
1975 One of These Nights
1974 On the Border
1973 Desperado
1972 The Eagles
On the Border tabs
01Already Gone tabbass tab
02You Never Cry Like A Lover tabbass tab
04My Man tabbass tab
05On The Border tabbass tab
07Ol' 55 tabbass tab
10The Best Of My Love tabbass tab

 

1