Search tabs:
Browse artists: 0-9 | A | B | C | D | E | F | G | H | I | J | K | L | M | N | O | P | Q | R | S | T | U | V | W | X | Y | Z
/ Hoobastank / The Reason (2003) / What Happened to Us? bass tab

Band: Hoobastank
Song: What Happened to Us?
Tabber: Alex W.

Tuning: Dropped D

Verse 0:28
------------------------------------------------------------------------------|
------------------------------------------------------------------------------|
------------------------------------------------------------------------------|x3
-0-0-00-0-0-0-00-0-0-0-00-0-0-0-00-0-8-8-88-8-8-8-88-8-5-5-55-5-10-10-1010-10-|

-------------------------------------------------------------------------|
-------------------------------------------------------------------------|
-------------------------------------------------------------------------|x1
-0-0-00-0-0-0-00-0-0-0-00-0-0-0-00-0-8-8-88-8-8-8-88-8-5-5-55-5-7-7-77-7-|

Chorus
---------------------------------------------|
---------------------------------------------|
---------------------------------------------|x1
-X-0-0-X-X-3/2-0-3/2-0-X-0-0-X-X-3/2-0-3/2-0-|

---------------------------------------------|
---------------------------------------------|
---------------------------------------------|x1
-5(x12)-8(x8)-10(x8)-------------------------|

Repeat Chorus

Repeat Verse

Repeat Chorus x2

After Chorus 2 let open D ring out.

Interlude
--------------------------------------------------|
--------------------------------------------------|
--------------------------------------------------|x2
-8~-8-8-8-8-10~-10-10-10-10-12~-12-12-12-12-12-12-|

-------------------------------------------|
-------------------------------------------|
-------------------------------------------|
-8~-8-8-8-8-10~-10-10-10-10-5-5-5-5-5-5-8~-|

-----------------|
-----------------|
-----------------|
-8-8-8-8-3-3-3-3-|

Repeat Chorus x2

Outro
---------------------------------------------|
---------------------------------------------|
---------------------------------------------|x2
-X-0-0-X-X-3/2-0-3/2-0-X-0-0-X-X-3/2-0-3/2-0-|

This is 100% correct. Just work out timing.
Have fun!! Please rate!!


Hoobastank albums
2003 The Reason
2001 Hoobastank
The Reason tabs
01Same Direction tabbass tab
02Out of Control tabbass tab
03What Happened to Us? tabbass tab
04Escape tabbass tab
05Just One tabbass tab
06Lucky tabbass tab
07From the Heart tabbass tab
08The Reason tabbass tab
09Let It Out tabbass tab
10Unaffected tabbass tab
11Never There tabbass tab
12Disappear tabbass tab

 

1