Search tabs:
Browse artists: 0-9 | A | B | C | D | E | F | G | H | I | J | K | L | M | N | O | P | Q | R | S | T | U | V | W | X | Y | Z
/ / / bass tab

Artist: hot water music
song: Aflight and a crash
Album: a flight ans a crash
tabbed by: smileatme

I dont know what is the verse and the chorus so i'll tab it all the way

G|---------------|
D|---------------|
A|---------------| x7
E|-22222222------|

G|-----------------------------------------------------|
D|----------------------------------------0-320--------|
A|-------------------------------222222222-2-----------|
E|-/14141212101099 55555555555555--------------22------|

G|-----------------------------------------------------|
D|-------------------------------------------0-320-----|
A|----------------------------------222222222-2--------| x2
E|-0h22-0h22-0h22/14\555555555555555-------------------|

G|-------------------------------------------------------------|
D|------------------------------------------------------0-320--|
A|---------------------------------------------222222222-2-----| x2
E|-(22222222)x4/14141212101099-5555555555555555----------------|

G|----------------------------------------|
D|-------------------------0-320----------|
A|----------------222222222-2-------------|
E|-555555555555555--------------22--------|

G|-----------------------------------------------------|
D|-------------------------------------------0-320-----|
A|----------------------------------222222222-2--------|
E|-0h22-0h22-0h22/14\555555555555555-------------------|

G|-------------------------------------------------------------|
D|------------------------------------------------------0-320--|
A|---------------------------------------------222222222-2-----| x2
E|-(22222222)x4/14141212101099-5555555555555555----------------|

G|----------------------------------------|
D|-------------------------0-320----------|
A|----------------222222222-2-------------|
E|-555555555555555------------------------|

G|--------------------------------------------------------------6-696---|
D|----------------------------------------------------------7-79-9---97-|
A|--------121211119977--------121211119977--------1212111199-9---------9|
E|-9999999------------55555555------------77777777----------------------|

G|--------------------------------------------------------------6-69-6911-|
D|----------------------------------------------------------7-79-9--9-----|
A|--------121211119977--------121211119977--------1212111199-9------------|
E|-9999999------------55555555------------77777777------------------------|

G|----------------------------------------|
D|-------------------------0-320----------|
A|----------------222222222-2-------------| x2
E|-555555555555555------------------------|

G|-------------------------|
D|-------------------------|
A|----------------22-22----|
E|-555555555555555------2--|


albums
tabs

 

1