Search tabs:
Browse artists: 0-9 | A | B | C | D | E | F | G | H | I | J | K | L | M | N | O | P | Q | R | S | T | U | V | W | X | Y | Z
/ / / bass tab

Verse
G-----------------------------|
D----------------------22-0---|
A-------------------22------2-|
E-0-22--0-22--0-22------------|


 Chorus 1		  Chorus 2		chorus 3
G------------------------|------------------|-------------------|
D----------222-----------|------------------|-------------------|
A-55555555-----4-2-0-2-4-|-5555555555555555-|-55555555-44444444-|
E------------------------|------------------|-------------------|

 Chorus end
G-------------------------------------|
D-------------------------------------|
A-55555555--22222222-0000000000000000-|
E-------------------------------------|

 Solo
G-----------|----------|
D-----------|-0h2--0h2-|
A---0---2---|----------|
E-2---2---0-|----------|
 2 measures  . .then

 Outro
G------------------------------------|
D------------------------------------|
A----------------------2222----------|
E-22222222--5555--2222------00000000-|

 Last measure
G------------------|
D------------------|
A------------2-----|
E-2----5--2----0-0-|


albums
tabs

 

1