Search tabs:
Browse artists: 0-9 | A | B | C | D | E | F | G | H | I | J | K | L | M | N | O | P | Q | R | S | T | U | V | W | X | Y | Z
/ / / bass tab

INTRO
G---------------------11------------14-
D-12-11-12-14-12-11-12---1212-11h12----
A--------------------------------------
E--------------------------------------


G----------------      there is a     G---------------------
D----------------      variation that D----------------4h54-
A-55-------------x4    goes….         A-55------------------
E------7\33---33-                     E------7\33--33-------


G------------------
D------------------
A------------------ x2
E-2222-3333-555555-


G-----------------
D-----------------
A-55--------------x2
E-------7\33---33-


G---------------------------------------------------------------------------------
D-----------------------------------------------------------------5-4-5-7-5-4-5-4-
A-5555555--------------------5555555---------------55555555-7-5-4-----------------
E---------77777-3332h332h333---------777777-3333333-------------------------------


G----------------------------------------------------
D----------------------------------------------------
A-------------44-55-77-55-44-4h54h5------------------
E-2222-3333-55----------------------2222-3333-555555-

G------------66-77-66-66-77-66-
D-444-555-77---------77--------- x2
A-------------------------------
E-------------------------------

G-----------------------------------------
D-----------------------------------------
A-----------------------------------------
E-22222-3333-55555-222-33333-5555555555-7-

G--------------
D--------------
A--------------x4
E-770-000-3333-


G--------------
D-9*-5*-2*--5*-
A--------------x4?
E--------------

G--------------------------------
D-55-5-55-5-55-5-55-5-55-5-55-5-
A--------------------------------
E--------------------------------


albums
tabs

 

1