Search tabs:
Browse artists: 0-9 | A | B | C | D | E | F | G | H | I | J | K | L | M | N | O | P | Q | R | S | T | U | V | W | X | Y | Z
/ / / bass tab

Artist: hot water music
Song: instrumental
Album: a flight and a crash
Tabbed by: smileatme

Verse
G|---------------------------------------------------------------------------|
D|----------------------------------------------4444-42----------------------|
A|--------------------------------------22224444-------42-2222222222224540---|x2
E|-2/12\22222222020000002222222202000000-------------------------------------|

Chorus
G|----------2----------------------------------------|
D|-----------4------------42-------------------------|
A|--------04--555555555555--42-222222222224540-------| x2
E|-22-22-2-------------------------------------------|

Verse 2
G|----------------------------------------------------------------------|
D|-----------------------------------------4444-42----------------------|
A|---------------------------------22224444-------42-2222222222224540---|x2
E|-22222222020000002222222202000000-------------------------------------|

chorus


albums
tabs

 

1