Search tabs:
Browse artists: 0-9 | A | B | C | D | E | F | G | H | I | J | K | L | M | N | O | P | Q | R | S | T | U | V | W | X | Y | Z
/ / / bass tab

G|------------------------------|
D|--------2h4p2>----------------|
A|---------------0-2>-0-2-0-4>--|
E|------------------------------|
/\ /\ /
x7 x5 x16

Pre-Verse (00:12-00:13)
G|--------------------------------------------------|
D|-------------------------------------6h7p6--------|
A|-4--4--2-4-2--------6h7-7-6-4----6h7-------7p6----|
E|-------------0--0-0-----------5>---------------7--|
/
x8
G|-----------------------------------------------|
D|-------------------------------------9>--------|
A|-4--4--2-4-2--------6h7-7-6------7/9----9-7----|
E|-------------0--0-0---------9-7>------------7--|
/\ /
x7 x5
G|--------------------------------------------------|
D|-------------------------------------6h7p6--------|
A|-4--4--2-4-2--------6h7-7-6-4----6h7-------7p6----|
E|-------------0--0-0-----------5>---------------7--|
/
x8
G|----------------------------------|(Don't stop playing,
D|----------------------------------|follow with the verse
A|-4--4--2-4-2--------6h7-7-6-------|after the 2> x13)
E|-------------0--0-0---------9-7>--|
/
x13
Verse 1(watch timing) (00:34-00:35)
G|------------------------------------------|(This might be a bit
D|------------------------------------------|confusing, but start
A|------------------------------------------|slow to get the right
E|-5-7-5-9>-7-0>-7-5>-7-5-9>-7-0>-9-7>-5-7--|timing)
/\ /\ /\ /\ /\ /
x6 x7 x13 x6 x7 x13
G|---------------------------------------------------------|
D|------------------6h7p6------------------------9>--------|
A|--------------6h7-------7p6----------------7/9----9-7----|
E|-9>-7-0>-7-5>---------------7-9>-7-0>-9-7>------------7--|
/\ /\ /\ /\ /\ /\ /
x6 x7 x8 x6 x7 x7 x5

Chorus (00:56-00:57)
G|-------------------------------------------------------------|
D|-------------------------------------------------------------|
A|-------------------------------------------------------------|
E|-5-7-4-00--0-0-0-0-7>-5ring-5/15\-5-7-4-00--0-0-0-0-7>-5ring-|
/\ /\
x6 x6
G|-------|
D|-------|
A|-------|
E|---5>--|
/
x7
Pre-Verse (01:09-01:10)
G|--------------------------------------------------|
D|-------------------------------------6h7p6--------|
A|-4--4--2-4-2--------6h7-7-6-4----6h7-------7p6----|
E|-------------0--0-0-----------5>---------------7--|
/
x8
G|----------------------------------|(Don't stop playing,
D|----------------------------------|follow with the verse
A|-4--4--2-4-2--------6h7-7-6-------|after the 2> x13)
E|-------------0--0-0---------9-7>--|
/
x13
Verse 2 (01:20-01:21)
G|------------------------------------------|
D|------------------------------------------|
A|------------------------------------------|
E|-5-7-5-9>-7-0>-7-5>-7-5-9>-7-0>-9-7>-5-7--|
/\ /\ /\ /\ /\ /
x6 x7 x13 x6 x7 x13
G|--------------------------------------------|
D|---------------7-6-----7-9-----6h7p6--------|
A|-----------0-0-----0-0-----0-0-------7p6----|
E|-9>-7-0>-7-------------------------------7--|
/\ /
x6 x7
G|----------------------------|
D|------------------9>--------|
A|--------------7/9----9-7----|
E|-9>-7-0>-9-7>------------7--|
/\ /\ /\ /
x6 x7 x7 x5

Chorus (01:43)
G|(x3)------------------------------|--------------------|(Follow
D|----------------------------------|--------------------|with Outro)
A|----------------------------------|--------------------|
E|-5-7-4-00--0-0-0-0-7>-5ring-5/15\-|-5-7-4-00--0-0-0-0--|
/
x6
Outro "Kiss it all GoodBye!!" (02:03)
G|(x4)---------------------------------------------------------|
D|-------------------------------------------------------------|
A|-----------------------------4-------------------------------|
E|-7-7-7-7-7--7-7-7-7-7--7-7-7---5-5-5-5-5--5-5-5-5-5--5-5-5-5-|

G|-------------------------------------------------|
D|-------------------------------------------------|
A|--------------------4-4--------------------------|
E|-7-7--7-7--7-7--7-7-----5-5--5-5--5-5--5-5---5-5-|

G|-------------------------------------------------------|(Pop the
D|------------------------------------------------2h4p2--| 2h4p2)
A|--------------------4-4----------------------0---------|
E|-7-7--7-7--7-7--7-7-----5-5--5-5--5-5--5-5-------------|End
pop


albums
tabs

 

1