Search tabs:
Browse artists: 0-9 | A | B | C | D | E | F | G | H | I | J | K | L | M | N | O | P | Q | R | S | T | U | V | W | X | Y | Z
/ / / bass tab

Artist: hot water music
song: Paper thin
Album: a flight and a crash
tabbed by: smileatme

Verse
G|------------------------------------------------------------------|
D|----------------2-------------------------------------------------|
A|-22222222-------------------45542222222455555554------------------| x2
E|---------0000000-22222220222--------------------2222222022222222--|

Chorus
G|------------------------------------------------------------------|
D|------------------------------------------------------------------|
A|------444--------4444444-------------------------4444444----------|
E|-55555---00000000-------0777777775555522200000000-------0000000-5*|

Verse x2

Chorus 2
G|------------------------------------------------------------------|
D|------------------------------------------------------------------|
A|------444--------4444444-------------------------4444444----------|
E|-55555---00000000-------0777777775555522200000000-------077777777-|

G|------------------------------------------------------------------------|
D|------------------------------------------------------------------------|
A|------444--------4444444-------------------------4444444----------------|
E|-55555---00000000-------0777777775555522200000000-------0000000-55555555|

Post-Chorus
G|-----------------------------------------|
D|-----------------------------------------|
A|---------44444444------------------------|
E|-77554455--------00000000555555577554455-|

Solo
G|------------------------------------------------------------------|
D|------------------------------------------------------------------|
A|-4444444-------------------------44444444-------------------------|
E|--------0000000-55555555-00000000--------00000000-555555555555555-|

End part
G|------------------------------------------------------------------|
D|---67--67--79------67--79--67------67--67--79-----67--79--67------|
A|-00--00--00--000-00--00--00--000-00--00--00--00-00--00--00--00----|
E|----------------0---------------0--------------0--------------0*--|


albums
tabs

 

1