Search tabs:
Browse artists: 0-9 | A | B | C | D | E | F | G | H | I | J | K | L | M | N | O | P | Q | R | S | T | U | V | W | X | Y | Z
/ / / bass tab

G---------------------------
D-------2-------------------
A--2h4----------------2-----
E----------0-4-0-2h4-----2--

G------------------
D------------------
A--4>--------------
E------0>--5>--4>--

G------------------------------------------------------------------------
D----------------------------------------------------------6h7p6---------
A-----7-7-7---------7-7----------5/12>--4>--2>---------6h7-------7-6-----
E--0---------9-7-0-------9-7--5>----------------4>/5>-----------------7--

G----------------------|-------------------
D----------------------|----7---7---7---7--
A--4>------------------|--0---0---0---0----
E------0>--4>--0>--2>--|-------------------

G----------------------
D----------------------
A--4>------------------
E------0>--5>--2>--5>--

G---------------|----------------
D---------------|----------------
A---------------|----------------
E--4-4-4-5-5-5--|--4-4-4--7-7-7--


albums
tabs

 

1