Search tabs:
Browse artists: 0-9 | A | B | C | D | E | F | G | H | I | J | K | L | M | N | O | P | Q | R | S | T | U | V | W | X | Y | Z
/ / / bass tab

HotWaterMusic- Swinger

Notation:
x - Mute
~ - Let ring
h - Hammer on
p - Pull off

Intro x1
G--------------------------
D--------------------------
A--------------------------
E---0-0--0---rest---0-0--0-

Very good verse bit x3
G-----------------------------------------------------------------------------
D---------------------------------4h5p4---------------------------------4h5p4-
A---------2-3-3-2h3p2--------2-3-3-----7--7-7-7--2-3-3-2h3p2--------2-3-3-----
E-0--0-0-0-----------3--3-3-3-------------------------------3--3-3-3----------

Bridge x3            after the 3rd one plays this:
G-----------------------------/------------------
D----------------4h5p4--------/------------------
A---0~---x-3~-----------5-----/-------5~-5-5-5-5-
E-----------------------------/------------------

Very good verse bit x3
G-----------------------------------------------------------------------------
D---------------------------------4h5p4---------------------------------4h5p4-
A---------2-3-3-2h3p2--------2-3-3-----7--7-7-7--2-3-3-2h3p2--------2-3-3-----
E-0--0-0-0-----------3--3-3-3-------------------------------3--3-3-3----------


Bridge x3            after the 3rd one plays this:
G-----------------------------/------------------
D----------------4h5p4--------/------------------
A---0~---x-3~-----------5-----/-------5~-5-5-5-5-
E-----------------------------/------------------

Rest for a little while and start playing the penultimate part at 1:43

The Penultimate Part x4
G-------------------------------------
D-------------------------------------
A--------2-3333333-2--------2---------
E-0000000-----------3333333--22222222-


Last part x8
G------------------
D--------------0h2-
A------------------
E-0-0-0-0-0-0-0----

End on E
E-0

Ok this is 100% please rate it deserves a 5 star. peace. bassmann


albums
tabs

 

1