Search tabs:
Browse artists: 0-9 | A | B | C | D | E | F | G | H | I | J | K | L | M | N | O | P | Q | R | S | T | U | V | W | X | Y | Z
/ Hot Water Music / Fuel for the Hate Game (1998) / Freightliner bass tab

Song:    Freightliner
Artist:  Hot Water Music
Album:   Fuel For The Hate Game
Instrument: Bass
Tuning:     Standard
Tabbed by:  borntired

Notation:
~ : let ring
h : hammer-on

INTRO:
G |------------------------------------------------------------------------|
D |------------------------------------------------------------------------|
A |------------------------------------------------------------------------|
E |-999-555-0~-------------------------------------------------------------|

VERSE:
G |------------------------------------------------------------------------|
D |------------------------------------------------------------------------|
A |-7777777777777777-44444444444444h64-------------------------------------|
E |------------------------------------7-5555555555555555-7777777777777777-|

G |------------------------------------------------------------------------|
D |------------------------------------------------------------------------|
A |------------------------7-7-7-777-444-----------------------------------|
E |4444444444444444-555-4-0-0-0----------5555555-4-5-77777777--------------|

CHORUS:
G |------------------------------------------------------------------------|
D |------------------------------------------------------------------------|
A |------------------------------------------------------------------------|
E |-999-555-0000-999-555-000-2222------------------------------------------|

INTERLUDE (instrumental):
G |------------------------------------------------------------------------|
D |------------------------------------------------------------------------|
A |-44444444----------44444444---------------------------------------------|
E |----------55555555----------2222222-------------------------------------|

BRIDGE:
G |------------------------------------------------------------------------|
D |----------99h119-----------------2--------------------------------------|
A |-77-44-00-------1111-77------00-2-4-44----------------------------------|
E |------------------------44----------------------------------------------|

OUTRO:
G |------------------------------------------------------------------------|
D |------------------------------------------------------------------------|
A |-77-----------7---------------------------------------------------------|
E |----44-55-7-9--99~------------------------------------------------------|

Order:
INTRO     x4
VERSE     x2
CHORUS    x2
VERSE     x4
CHORUS    x4
INTERLUDE x3
BRIDGE    x3
OUTRO     x1


Hot Water Music albums
2004 The New What Next
2004 Never Ender
2002 Caution
2001 A Flight and a Crash
1999 Moonpies for Misfits
1999 No Division
1998 Fuel for the Hate Game
1997 Forever and Counting
Fuel for the Hate Game tabs
02Turnstile tabbass tab
04Trademark tabbass tab
05Freightliner tabbass tab
08Rock Singer tabbass tab
11Drunken Third tabbass tab

 

1