Search tabs:
Browse artists: 0-9 | A | B | C | D | E | F | G | H | I | J | K | L | M | N | O | P | Q | R | S | T | U | V | W | X | Y | Z
/ Hot Water Music / Fuel for the Hate Game (1998) / Rock Singer bass tab

Tabbed by Ste smarja from MIGHTY WAKEFIELD

I will work out the rest of this tab at a later date!!!!!!!!!!!

Standard Tuning

*=let ring, s=slide, h=hammer-on


Solo only
(2.20)

To play this you must place your middle finger of your left hand on the 6th fret on string D continuously, and your little finger on the 7th fret on string D when needed.
The notes on string A are now played with your index finger and little finger.


G------------------------------
D-----------------------6h7----
A-000077755555555--------------
E------------------------------

G------------------------------------------
D---------------------------7-----6h7------
A-0000777555--------55-555-----55----------
E------------------------------------------

G-----------------------------------
D-----------------6h7-6h7-6h7-------
A-00007775555----5---5---5----------
E-----------------------------------

G------------------------------
D------------------------------
A-000077755555555--------------
E------------------------------

G--------------------7--7---
D-------------------6--6----
A-00007775555------5--5-----
E---------------------------






G-----------------------------------
D-----------------6h7-6h7-6h7-------
A-00007775555----5---5---5----------
E-----------------------------------

G-----------------------------------
D-----------------6h7-6h7-6h7-------
A-00007775555----5---5---5----------
E-----------------------------------

G--------------------7--7---
D-------------------6--6---
A-00007775555------5--5----
E---------------------------

G------------------------------
D------------------------------
A-000077755555555--------------
E------------------------------

G------------------------------
D------------------------------
A-000077755555555--------------
E------------------------------

G------------------------------
D------------------------------
A-000077755555555--------------
E------------------------------

SPREAD THE WORD OF HWM


Hot Water Music albums
2004 The New What Next
2004 Never Ender
2002 Caution
2001 A Flight and a Crash
1999 Moonpies for Misfits
1999 No Division
1998 Fuel for the Hate Game
1997 Forever and Counting
Fuel for the Hate Game tabs
02Turnstile tabbass tab
04Trademark tabbass tab
05Freightliner tabbass tab
08Rock Singer tabbass tab
11Drunken Third tabbass tab

 

1