Search tabs:
Browse artists: 0-9 | A | B | C | D | E | F | G | H | I | J | K | L | M | N | O | P | Q | R | S | T | U | V | W | X | Y | Z
/ Hot Water Music / Fuel for the Hate Game (1998) / Trademark bass tab

INTRO
This must be played stinking fast.

G-------7-----6---9-7-6-h7-p6|
D---7-7---7-7---7------------| Repeat 10+ times
A----------------------------|
E----------------------------|

Verse 1
Very Melodic

G----------------------------------|
D---7-7-7-7-7-7-7-7-7-7-7-7-9-7-6-7|
A----------------------------------|
E----------------------------------|

Chorus
simple Notes, bassists adds in
G--------------------------------|
D--------------------------------|
A---9-9-9-9-9-9------------------| Repeat
E---------------10-10-10-10-10-10|

Into repeated
G-------7-----6---9-7-6-h7-p6|
D---7-7---7-7---7------------|
A----------------------------|
E----------------------------|

Verse two
G----------------------------------|
D---7-7-7-7-7-7-7-7-7-7-7-7-9-7-6-7|
A----------------------------------|
E----------------------------------|

Bridge
G------------------------------------------|
D----------------------------0-h2-0-h2-0-h4|
A---5-4-0-0---------5-4-0-0----------------| Repeat
E-----------0-0-2--------------------------|


Hot Water Music albums
2004 The New What Next
2004 Never Ender
2002 Caution
2001 A Flight and a Crash
1999 Moonpies for Misfits
1999 No Division
1998 Fuel for the Hate Game
1997 Forever and Counting
Fuel for the Hate Game tabs
02Turnstile tabbass tab
04Trademark tabbass tab
05Freightliner tabbass tab
08Rock Singer tabbass tab
11Drunken Third tabbass tab

 

1