Search tabs:
Browse artists: 0-9 | A | B | C | D | E | F | G | H | I | J | K | L | M | N | O | P | Q | R | S | T | U | V | W | X | Y | Z
/ Hot Water Music / Fuel for the Hate Game (1998) / Turnstile bass tab

Intro x1 ( ~ means let ring, you know what to do )

G-------11~-------12~-----18~----15~
D--9----9~--9/10--10~-----17~----14~
A-----------------------------------
E-----------------------------------

Main Riff x2
G------------------------------------------------------------------------------
D------------------------------------------------------------------------------
A-222222222222222-5-----------------5-44444444--7-7-5-5-4h5-4\1111111111111111-
E-------------------333333333333333--------------------------------------------

Verse x2
G-----------------------------------
D-----------------------------------
A-5555555-44444444-22222222---------
E--------------------------33333333-

Verse part 2 x1
G-------------------------------------15-15--14~---------------------
D-------------------------------------13-13--12~---------------------
A-5-5--4-4--2-2--5-4-2-----------5-5-------------2-2--5-4-2----------
E----------------------33333333-----------------------------33333333-

Then Main riff again x4

Verse variation x2
G---------------------------------------
D---------------------------------------
A-55555555-44444444-2-2--5-4-2----------
E------------------------------33333333-

Then verse part 2 x1 but miss out the chords this time and play the two 4's instead like the first time.

And next comes a new bit play it x2
G--------------------------------------------------------------------------
D---------4------------------4-----------------4-----------------4---------
A-5-5-5-5---5-4-5---4-4-4-5----5-4-5---2-2-2-5---5-4-5---------5---5-4-5---
E-------------------------------------------------------3-3-3--------------

Then hold the last A - 5


Last part ( Outro) play it
G----------------------------------
D----------------------------------
A-55555555-555---------------------
E---------------22222222-222222222-


Hot Water Music albums
2004 The New What Next
2004 Never Ender
2002 Caution
2001 A Flight and a Crash
1999 Moonpies for Misfits
1999 No Division
1998 Fuel for the Hate Game
1997 Forever and Counting
Fuel for the Hate Game tabs
02Turnstile tabbass tab
04Trademark tabbass tab
05Freightliner tabbass tab
08Rock Singer tabbass tab
11Drunken Third tabbass tab

 

1