Search tabs:
Browse artists: 0-9 | A | B | C | D | E | F | G | H | I | J | K | L | M | N | O | P | Q | R | S | T | U | V | W | X | Y | Z
/ Hot Water Music / Never Ender (2004) / Elektra bass tab

Artist: Hot Water Music
Song: Elektra
Album: Don't Forget To Breathe
Tabbed by: Oscar E. Bustos

=Intro/Main Riff=

Riff 1
G-------------|
D-2-2-4-2-----|
A---------4-2-|
E-------------| x1

Riff 2
G-----------2-2-2-2|
D---2-4-0----------|
A-3-------3--------|
E------------------| x 2


=Verse=

G----------------------------|----|
D----------------------------|----|
A-2-2-2-0-0-0-0-2-2-2--------|-0h2|
E---------------------2-2-2-2|----|  just listen, i didnt feel like counting

=Pre-chorus=
(why fall without a fight...)

same as verse in a different rhythm, listen for it


=Chorus=
(and I don't want to stand divided...)
                                                         (FAST!)    End 1    End 2
G-----------------------------------------------------------------|------|---------|
D----------5h77p5-----5577\8/7------5577\8/7---------/55555h777777|557755|75-75-75-|
A-55555h7p5-------5577---------5577----------0000000--------------|------|--5--5--5|
E-----------------------------------------------------------------|------|---------|



Play Riff 2

=Bridge=

G------------------------------------------|
D-------------75---------------------------|
A-555-77p55-------5-0h5555555h7777777p5----|
E----------555--------------------------5--|


Hot Water Music albums
2004 The New What Next
2004 Never Ender
2002 Caution
2001 A Flight and a Crash
1999 Moonpies for Misfits
1999 No Division
1998 Fuel for the Hate Game
1997 Forever and Counting
Never Ender tabs
01Alachua tabbass tab
07Elektra tabbass tab

 

1