Search tabs:
Browse artists: 0-9 | A | B | C | D | E | F | G | H | I | J | K | L | M | N | O | P | Q | R | S | T | U | V | W | X | Y | Z
/ Infectious Grooves / Sarsippius' Ark (1993) / Spreck bass tab

Chorus, intro
-------------------------------------------------
-------------------------------------------------
---------4/7---4--------------------------4^---
---0-----------------5--------0----3--5-------

Main groove   (slapped)
--5-------------5--------5-----------9/7------
--3----------4---------- 3-----------7/5------
----------5------------------------------------
------------------------------------------------
In between places
------------------
------------------
-------0---2-0---
--2-3---------3--

my first tab so rate it
I think it sounded pretty good, I saw another tab for and I thought 
it kinda sucked and was missing parts so I just redid it, I think it
 sounds much better

KEVIN


Infectious Grooves albums
2000 Mas Borracho
1994 Groove Family Cyco
1993 Sarsippius' Ark
1991 The Plague That Makes Your Booty Move
Sarsippius' Ark tabs
04The Immigrant Song tabbass tab
06Don't Stop Spread the Jam tabbass tab
07Three Headed Mind Pollution tabbass tab
11These Freaks Are Here to Party tabbass tab
20Spreck tabbass tab

 

1