Search tabs:
Browse artists: 0-9 | A | B | C | D | E | F | G | H | I | J | K | L | M | N | O | P | Q | R | S | T | U | V | W | X | Y | Z
/ Infectious Grooves / Sarsippius' Ark (1993) / These Freaks Are Here to Party bass tab

Artist: Infectious Grooves
Song: These Freaks Are Here To Party
Album: Sarsippius' Ark
I didn't tab this so full credit to Funk Warts (jonwhoisnotasfatasyoumaythink@hotmail.com)

This tab is an addition to Rodrigo G. Segura's tab (nueayr@yahoo.com).
He got what I've called the 'verse' riff spot on but didn't include
the bass solo or bridge. The bass solo is sort of right, but I'm sure
there's a couple of notes missing. My advice is add loads of mutes to
cover up for that (!). As for the rhythms, listen to the track to suss
it out - it's not too hard.

Intro:
|----------------------|
|----------------------|
|----------------------|
|-0-/-12-\\-10-/-19-\\-0-|

Verse riff:
|---------------------------|---------------------------------------|
|---------------------------|---------------------------------------|
|-----/-7-\\-----------------|-----------------------------/-5-5-5-5-|
|-0-----------0-0-3-/5\\-3\\--|-0-0-0-0-/-4-4-4-4-/-7-7-7-7-----------|

Bass solo:
    T P  T P  T P  T P  T P  T P  T P  T P  T P  T  P
|-----7---------6--------------5----4----5---------4^6--|
|----------7---------6----5-------------------5---------|
|-/-5---------4--------------3----X----X---------X------|
|--------5---------4----3-------------------X-----------|

  T P  T P  T P    P P P P P P P P
|---7----5-------/-7-7-7-7-7-7-7-7-|
|-------------5-/------------------|
|-5----3---------------------------|
|-----------3----------------------|

Bridge:
|------------------|------------------|
|------------------|------------------|
|-5-4-3-2--2-1-0---|------------------|
|----------------3-|-3-2-1-0--0-0-0-0-|

Enjoy!


Infectious Grooves albums
2000 Mas Borracho
1994 Groove Family Cyco
1993 Sarsippius' Ark
1991 The Plague That Makes Your Booty Move
Sarsippius' Ark tabs
04The Immigrant Song tabbass tab
06Don't Stop Spread the Jam tabbass tab
07Three Headed Mind Pollution tabbass tab
11These Freaks Are Here to Party tabbass tab
20Spreck tabbass tab

 

1