Search tabs:
Browse artists: 0-9 | A | B | C | D | E | F | G | H | I | J | K | L | M | N | O | P | Q | R | S | T | U | V | W | X | Y | Z
/ Joe Satriani / Crystal Planet (1998) / House Full of Bullets bass tab

House Full Of Bullets


                                                                     Joe Satriani
Bass
Jet 2000




G||------------------|------------------------------|
D||------------------|------------------------------|
A||------------------|------------------------------|
E||------------------|--2---0---2-0-2-2-0-2-0-0-2-0-|



------------------------------|------------------------------|
------------------------------|------------------------------|
------------------------------|------------------------------|
--2---0---2-0-2-2-0-2-0-0-2-0-|--2---0---2-0-2-2-0-2-0-0-2-0-|



------------------------------|------------------------------|
------------------------------|------------------------------|
------------------------------|--2---0---2-0-2-2-0-2-0-0-2-0-|
--2---0---2-0-2-2-0-2-0-0-2-0-|------------------------------|



-----------------------------|------------------------------|
-----------------------------|------------------------------|
--2---0---2-0-2--2-0-2-0-----|------------------------------|
-------------------------2-0-|--2---0---2-0-2-2-0-2-0-0-2-0-|



------------------------------|------------------------------|
------------------------------|------------------------------|
------------------------------|--4---2---4-2-4-4-2-4-2-2-4-0-|
--2---0---2-0-2-2-0-2-0-0-2-0-|------------------------------|



------------------------------|------------------------------|
------------------------------|------------------------------|
--2---0---2-0-2-3-2-0-2-0-----|------------------------------|
--------------------------2-0-|--2---0---2-0-2-2-0-2-0-0-2-0-|



-----------------------|------------------------------|
-----------------------|------------------------------|
-----------------------|------------------------------|
--2---0---2-0-2--------|--2---0---2-0-2-2-0-2-0-0-2-0-|



------------------------------|------------------------------|
------------------------------|------------------------------|
------------------------------|------------------------------|
--2---0---2-0-2-2-0-2-0-0-2-0-|--2---0---2-0-2-2-0-2-0-0-2-0-|



------------------------------|------------------------------|
------------------------------|------------------------------|
------------------------------|--2---0---2-0-2-2-0-2-0-0-2-0-|
--2---0---2-0-2-2-0-2-0-0-2-0-|------------------------------|



-----------------------------|------------------------------|
-----------------------------|------------------------------|
--2---0---2-0-2--2-0-2-0-----|------------------------------|
-------------------------2-0-|--2---0---2-0-2-2-0-2-0-0-2-0-|



------------------------------|------------------------------|
------------------------------|------------------------------|
------------------------------|--4---2---4-2-4-4-2-4-2-2-4-0-|
--2---0---2-0-2-2-0-2-0-0-2-0-|------------------------------|



------------------------------|------------------------------|
------------------------------|------------------------------|
--2---0---2-0-2-3-2-0-2-0-----|------------------------------|
--------------------------2-0-|--2---0---2-0-2-2-0-2-0-0-2-0-|



-----------------------|------------------------------|
-----------------------|------------------------------|
-----------------------|------------------------------|
--2---0---2-0-2--------|--2---0---2-0-2-2-0-2-0-0-2-0-|



------------------------------|------------------------------|
------------------------------|------------------------------|
------------------------------|------------------------------|
--2---0---2-0-2-2-0-2-0-0-2-0-|--2---0---2-0-2-2-0-2-0-0-2-0-|



------------------------------|------------------------------|
------------------------------|------------------------------|
------------------------------|--2---0---2-0-2-2-0-2-0-0-2-0-|
--2---0---2-0-2-2-0-2-0-0-2-0-|------------------------------|



-----------------------------|------------------------------|
-----------------------------|------------------------------|
--2---0---2-0-2--2-0-2-0-----|------------------------------|
-------------------------2-0-|--2---0---2-0-2-2-0-2-0-0-2-0-|



------------------------------|------------------------------|
------------------------------|------------------------------|
------------------------------|--4---2---4-2-4-4-2-4-2-2-4-0-|
--2---0---2-0-2-2-0-2-0-0-2-0-|------------------------------|



------------------------------|------------------------------|
------------------------------|------------------------------|
--2---0---2-0-2-3-2-0-2-0-----|------------------------------|
--------------------------2-0-|--2---0---2-0-2-2-0-2-0-0-2-0-|



-----------------------|------------------------------|
-----------------------|------------------------------|
-----------------------|------------------------------|
--2---0---2-0-2--------|--2---0---2-0-2-2-0-2-0-0-2-0-|



------------------------------|------------------------------|
------------------------------|------------------------------|
------------------------------|------------------------------|
--2---0---2-0-2-2-0-2-0-0-2-0-|--2---0---2-0-2-2-0-2-0-0-2-0-|



------------------------------|------------------------------|
------------------------------|------------------------------|
------------------------------|--2---0---2-0-2-2-0-2-0-0-2-0-|
--2---0---2-0-2-2-0-2-0-0-2-0-|------------------------------|



-----------------------------|------------------------------|
-----------------------------|------------------------------|
--2---0---2-0-2--2-0-2-0-----|------------------------------|
-------------------------2-0-|--2---0---2-0-2-2-0-2-0-0-2-0-|



------------------------------|------------------------------|
------------------------------|------------------------------|
------------------------------|--4---2---4-2-4-4-2-4-2-2-4-0-|
--2---0---2-0-2-2-0-2-0-0-2-0-|------------------------------|



------------------------------|------------------------------|
------------------------------|------------------------------|
--2---0---2-0-2-3-2-0-2-0-----|------------------------------|
--------------------------2-0-|--2---0---2-0-2-2-0-2-0-0-2-0-|



-----------------------|------------------------------|
-----------------------|------------------------------|
-----------------------|------------------------------|
--2---0---2-0-2--------|--2---0---2-0-2-2-0-2-0-0-2-0-|



------------------------------|------------------------------|
------------------------------|------------------------------|
------------------------------|------------------------------|
--2---0---2-0-2-2-0-2-0-0-2-0-|--2---0---2-0-2-2-0-2-0-0-2-0-|



------------------------------|------------------------------|
------------------------------|------------------------------|
------------------------------|--2---0---2-0-2-2-0-2-0-0-2-0-|
--2---0---2-0-2-2-0-2-0-0-2-0-|------------------------------|



-----------------------------|------------------------------|
-----------------------------|------------------------------|
--2---0---2-0-2--2-0-2-0-----|------------------------------|
-------------------------2-0-|--2---0---2-0-2-2-0-2-0-0-2-0-|



------------------------------|------------------------------|
------------------------------|------------------------------|
------------------------------|--4---2---4-2-4-4-2-4-2-2-4-0-|
--2---0---2-0-2-2-0-2-0-0-2-0-|------------------------------|



------------------------------|------------------------------|
------------------------------|------------------------------|
--2---0---2-0-2-3-2-0-2-0-----|------------------------------|
--------------------------2-0-|--2---0---2-0-2-2-0-2-0-0-2-0-|



-----------------------|------------------------------|
-----------------------|------------------------------|
-----------------------|------------------------------|
--2---0---2-0-2--------|--2---0---2-0-2-2-0-2-0-0-2-0-|



------------------------------|------------------------------|
------------------------------|------------------------------|
------------------------------|------------------------------|
--2---0---2-0-2-2-0-2-0-0-2-0-|--2---0---2-0-2-2-0-2-0-0-2-0-|



------------------------------|------------------------------|
------------------------------|------------------------------|
------------------------------|--2---0---2-0-2-2-0-2-0-0-2-0-|
--2---0---2-0-2-2-0-2-0-0-2-0-|------------------------------|



-----------------------------|------------------------------|
-----------------------------|------------------------------|
--2---0---2-0-2--2-0-2-0-----|------------------------------|
-------------------------2-0-|--2---0---2-0-2-2-0-2-0-0-2-0-|



------------------------------|------------------------------|
------------------------------|------------------------------|
------------------------------|--4---2---4-2-4-4-2-4-2-2-4-0-|
--2---0---2-0-2-2-0-2-0-0-2-0-|------------------------------|



------------------------------|------------------------------|
------------------------------|------------------------------|
--2---0---2-0-2-3-2-0-2-0-----|------------------------------|
--------------------------2-0-|--2---0---2-0-2-2-0-2-0-0-2-0-|



-----------------------|------------------------------|
-----------------------|------------------------------|
-----------------------|------------------------------|
--2---0---2-0-2--------|--2---0---2-0-2-2-0-2-0-0-2-0-|



------------------------------|------------------------------|
------------------------------|------------------------------|
------------------------------|------------------------------|
--2---0---2-0-2-2-0-2-0-0-2-0-|--2---0---2-0-2-2-0-2-0-0-2-0-|



------------------------------|------------------------------|
------------------------------|------------------------------|
------------------------------|--2---0---2-0-2-2-0-2-0-0-2-0-|
--2---0---2-0-2-2-0-2-0-0-2-0-|------------------------------|



-----------------------------|------------------------------|
-----------------------------|------------------------------|
--2---0---2-0-2--2-0-2-0-----|------------------------------|
-------------------------2-0-|--2---0---2-0-2-2-0-2-0-0-2-0-|



------------------------------|------------------------------|
------------------------------|------------------------------|
------------------------------|--4---2---4-2-4-4-2-4-2-2-4-0-|
--2---0---2-0-2-2-0-2-0-0-2-0-|------------------------------|



------------------------------|------------------------------|
------------------------------|------------------------------|
--2---0---2-0-2-3-2-0-2-0-----|------------------------------|
--------------------------2-0-|--2---0---2-0-2-2-0-2-0-0-2-0-|



-----------------------|------------------------------|
-----------------------|------------------------------|
-----------------------|------------------------------|
--2---0---2-0-2--------|--2---0---2-0-2-2-0-2-0-0-2-0-|



------------------------------|------------------------------|
------------------------------|------------------------------|
------------------------------|------------------------------|
--2---0---2-0-2-2-0-2-0-0-2-0-|--2---0---2-0-2-2-0-2-0-0-2-0-|



------------------------------|------------------------------|
------------------------------|------------------------------|
------------------------------|--2---0---2-0-2-2-0-2-0-0-2-0-|
--2---0---2-0-2-2-0-2-0-0-2-0-|------------------------------|



-----------------------------|------------------------------|
-----------------------------|------------------------------|
--2---0---2-0-2--2-0-2-0-----|------------------------------|
-------------------------2-0-|--2---0---2-0-2-2-0-2-0-0-2-0-|



------------------------------|------------------------------|
------------------------------|------------------------------|
------------------------------|--4---2---4-2-4-4-2-4-2-2-4-0-|
--2---0---2-0-2-2-0-2-0-0-2-0-|------------------------------|



------------------------------|------------------------------|
------------------------------|------------------------------|
--2---0---2-0-2-3-2-0-2-0-----|------------------------------|
--------------------------2-0-|--2---0---2-0-2-2-0-2-0-0-2-0-|



-----------------------|------------------------------|
-----------------------|------------------------------|
-----------------------|------------------------------|
--2---0---2-0-2--------|--2---0---2-0-2-2-0-2-0-0-2-0-|



------------------------------|------------------------------|
------------------------------|------------------------------|
------------------------------|------------------------------|
--2---0---2-0-2-2-0-2-0-0-2-0-|--2---0---2-0-2-2-0-2-0-0-2-0-|



------------------------------|------------------------------|
------------------------------|------------------------------|
------------------------------|--2---0---2-0-2-2-0-2-0-0-2-0-|
--2---0---2-0-2-2-0-2-0-0-2-0-|------------------------------|



-----------------------------|------------------------------|
-----------------------------|------------------------------|
--2---0---2-0-2--2-0-2-0-----|------------------------------|
-------------------------2-0-|--2---0---2-0-2-2-0-2-0-0-2-0-|



------------------------------|------------------------------|
------------------------------|------------------------------|
------------------------------|--4---2---4-2-4-4-2-4-2-2-4-0-|
--2---0---2-0-2-2-0-2-0-0-2-0-|------------------------------|



------------------------------|------------------------------|
------------------------------|------------------------------|
--2---0---2-0-2-3-2-0-2-0-----|------------------------------|
--------------------------2-0-|--2---0---2-0-2-2-0-2-0-0-2-0-|



-----------------------|------------------------------|
-----------------------|------------------------------|
-----------------------|------------------------------|
--2---0---2-0-2--------|--2---0---2-0-2-2-0-2-0-0-2-0-|



------------------------------|------------------------------|
------------------------------|------------------------------|
------------------------------|------------------------------|
--2---0---2-0-2-2-0-2-0-0-2-0-|--2---0---2-0-2-2-0-2-0-0-2-0-|



------------------------------|------------------------------|
------------------------------|------------------------------|
------------------------------|--2---0---2-0-2-2-0-2-0-0-2-0-|
--2---0---2-0-2-2-0-2-0-0-2-0-|------------------------------|



-----------------------------|------------------------------|
-----------------------------|------------------------------|
--2---0---2-0-2--2-0-2-0-----|------------------------------|
-------------------------2-0-|--2---0---2-0-2-2-0-2-0-0-2-0-|



------------------------------|------------------------------|
------------------------------|------------------------------|
------------------------------|------------------------------|
--2---0---2-0-2-2-0-2-0-0-2-0-|--2---0---2-0-2-2-0-2-0-0-2-0-|



------------------------------|------------------------------|
------------------------------|------------------------------|
------------------------------|------------------------------|
--2---0---2-0-2-2-0-2-0-0-2-0-|--2---0---2-0-2-2-0-2-0-0-2-0-|



------------------------------|------------------------------|
------------------------------|------------------------------|
------------------------------|------------------------------|
--2---0---2-0-2-2-0-2-0-0-2-0-|--2---0---2-0-2-2-0-2-0-0-2-0-|



------------------------------|------------------------------|
------------------------------|------------------------------|
------------------------------|------------------------------|
--2---0---2-0-2-2-0-2-0-0-2-0-|--2---0---2-0-2-2-0-2-0-0-2-0-|



------------------------------|------------------------------||
------------------------------|------------------------------||
------------------------------|------------------------------||
--2---0---2-0-2-2-0-2-0-0-2-0-|--2---0---2-0-2-2-0-2-0-0-2-0-||


Joe Satriani albums
2004 Is There Love in Space?
2002 Strange Beautiful Music
2000 Engines of Creation
1998 Crystal Planet
1995 Joe Satriani
1993 Time Machine
1992 The Extremist
1989 Flying in a Blue Dream
1987 Surfing With the Alien
1986 Not of This Earth
Crystal Planet tabs
01Up in the Sky tabbass tab
02House Full of Bullets tabbass tab
03Crystal Planet tabbass tab
04Love Thing tabbass tab
06Lights of Heaven tabbass tab
07Raspberry Jam Delta-V tabbass tab
08Ceremony tabbass tab
10Secret Prayer tabbass tab
11A Train of Angels tabbass tab
12A Piece of Liquid tabbass tab
14Time tabbass tab
15Z.Z.'s Song tabbass tab

 

1