Search tabs:
Browse artists: 0-9 | A | B | C | D | E | F | G | H | I | J | K | L | M | N | O | P | Q | R | S | T | U | V | W | X | Y | Z
/ / / bass tab

Title:            Satch Boogie
Artist:           Joe Satriani
Bass Performance: Stu Hamm

Drop D Tuning on E

Note: I'm not gonna put in all the rest's, you'll get the idea.

G|---------------------|----------------------|------------------|
D|---------------------|--0-------------------|------------------|
A|------------0--3--0--|-----0----------------|------------------|
D|---------------------|--------5--7\---------|--------R---------|



-------------------|---------------------|----------------------|
-------------------|---------------------|--0-------------------|
-------------------|------------0--3--0--|-----0----------------|
------0------------|---------------------|--------5--7\---------|



------------------|-------------------|---------------------|
------------------|-------------------|---------------------|
------------------|-------------------|------------0--3--0--|
-------R----------|------0------------|---------------------|



----------------------|---------------------|----------------------|
--0-------------------|---------------0-----|--2-------------------|
-----0----------------|------------0-----0--|-----0--0-------------|
--------5--4----------|---------------------|-----------6----------|



--------------|--------------------------------|----------------------|
--------------|--2----1----0-------------------|----------------------|
--------------|-----------------4----3----2----|--1----------0--3--0--|
------R-------|--------------------------------|----------------------|



----------------------|------------------|--------------------|
--0-------------------|------------------|-------------0------|
-----0----------------|------------------|----4---------------|
--------5--7\---------|--------R---------|--------------------|



-----------------------|------------------|---------------------|
-----0--1--2-----------|------------------|---------------------|
--3--------------------|------------------|------------0--3--0--|
------------------2----|-------R----------|---------------------|



----------------------|------------------|-------------------|----------|
--0-------------------|------------------|-------------------|----------|
-----0----------------|------------------|-------------------|----------|
--------5--7\---------|------------------|------0------------|----------|



------------------|------------------|---------------------|
------------------|------------------|---------------------|
------------------|------------------|--0------------0--0--|
------------------|------------------|---------------------|



--------------------------|--------------------------|
--------------------------|--------------------------|
--0--0--0--0--0--0--0--0--|--0--0--0--0--0--0--0--0--|
--------------------------|--------------------------|



--------------------------|--------------------------|
--------------------0-----|--------------------------|
--0--0--0--0--3--0-----0--|--0--0--0--0--0--0--0--0--|
--------------------------|--------------------------|



--------------------------|--------------------------|
--------------------------|--------------------------|
--0--0--0--0--3--0-----0--|--0--0--0--0--0--0--0--0--|
--------------------5-----|--------------------------|



--------------------------|--------------------------|
--------------------0-----|--------------------------|
--0--0--0--0--3--0-----0--|--0--0--0--0--0--0--0--0--|
--------------------------|--------------------------|



--------------------------|--------------------------|
--2-----1-----0-----------|--------------------------|
-----0-----0-----0--3--0--|--0--0--0--0--0--0--0--0--|
--------------------------|--------------------------|



--------------------------|--------------------------|
--------------------0-----|--------------------------|
--0--0--0--0--3--0-----0--|--0--0--0--0--0--0--0--0--|
--------------------------|--------------------------|



--------------------------|--------------------------|
--------------------------|--------------------------|
--0--0--0--0--3--0-----0--|--0--0--0--0--0--0--0--0--|
--------------------5-----|--------------------------|



--------------------------|--------------------------|
--------------------0-----|--------------------------|
--0--0--0--0--3--0-----0--|--0--0--0--0--0--0--0--0--|
--------------------------|--------------------------|



--------------------------|-------------------------|--------------------------|
-----------------------0--|----0--0--0--0--0--0--0--|--0--0--0--0--0--0--0--0--|
--0--0--2--0--3--0--4-----|-------------------------|--------------------------|
--------------------------|-------------------------|--------------------------|



--------------------------|-----------------------|--------------------------|
--0--0--0--0--0--0--0--0--|--------------------0--|--0--0--0--0--0--0--0--0--|
--------------------------|--3----2----0----2-----|--------------------------|
--------------------------|-----------------------|--------------------------|



--------------------------|--------------------------|-----------------------|
--0--0--0--0--0--0--0--0--|--0--0--0--0--0--0--0--0--|-----------------------|
--------------------------|--------------------------|--3----2----0----2-----|
--------------------------|--------------------------|--------------------4--|



--------------------------|-------------------------|--------------------------|
--------------------------|-------------------------|--------------------------|
--------------------------|--------------0----2-----|--------------------------|
--4--4--4--4--4--4--4--4--|--4--4--4--4----------4--|--4--4--4--4--4--4--4--4--|



-------------------------|--------------------------|-------------------------|
-------------------------|--------------------------|-------------------------|
--------------0----2-----|--------------------------|--------------0----2-----|
--4--4--4--4----------4--|--4--4--4--4--4--4--4--4--|--4--4--4--4----------4--|



--------------------------|-------------------------|--------------------------|
--------------------------|-------------------------|--------------------------|
--------------------------|-------------------------|--0--0--0--0--0--0--0--0--|
--4--4--4--4--4--4--4--4--|--4--4--4--4--5----6--7--|--------------------------|



--------------------------|--------------------------|
--------------------0-----|--------------------------|
--0--0--0--0--3--0-----0--|--0--0--0--0--0--0--0--0--|
--------------------------|--------------------------|



--------------------------|--------------------------|
--------------------------|--------------------------|
--0--0--0--0--3--0-----0--|--0--0--0--0--0--0--0--0--|
--------------------5-----|--------------------------|



--------------------------|--------------------------|
--------------------0-----|--------------------------|
--0--0--0--0--3--0-----0--|--0--0--0--0--0--0--0--0--|
--------------------------|--------------------------|



--------------------------|--------------------------|
--2-----1-----0-----------|--------------------------|
-----0-----0-----0--3--0--|--0--0--0--0--0--0--0--0--|
--------------------------|--------------------------|



--------------------------|--------------------------|
--------------------0-----|--------------------------|
--0--0--0--0--3--0-----0--|--0--0--0--0--0--0--0--0--|
--------------------------|--------------------------|



--------------------------|--------------------------|
--------------------------|--------------------------|
--0--0--0--0--3--0-----0--|--0--0--0--0--0--0--0--0--|
--------------------5-----|--------------------------|



--------------------------|--------------------------|
--------------------0-----|--------------------------|
--0--0--0--0--3--0-----0--|--0--0--0--0--0--0--0--0--|
--------------------------|--------------------------|



--------------------------|-------------------------|--------------------------|
-----------------------0--|----0--0--0--0--0--0--0--|--0--0--0--0--0--0--0--0--|
--0--0--2--0--3--0--4-----|-------------------------|--------------------------|
--------------------------|-------------------------|--------------------------|



--------------------------|-----------------------|--------------------------|
--0--0--0--0--0--0--0--0--|--------------------0--|--0--0--0--0--0--0--0--0--|
--------------------------|--3----2----0----2-----|--------------------------|
--------------------------|-----------------------|--------------------------|



--------------------------|--------------------------|-----------------------|
--0--0--0--0--0--0--0--0--|--0--0--0--0--0--0--0--0--|-----------------------|
--------------------------|--------------------------|--3----2----0----2-----|
--------------------------|--------------------------|--------------------4--|



--------------------------|-------------------------|--------------------------|
--------------------------|-------------------------|--------------------------|
--------------------------|--------------0----2-----|--------------------------|
--4--4--4--4--4--4--4--4--|--4--4--4--4----------4--|--4--4--4--4--4--4--4--4--|



-------------------------|--------------------------|-------------------------|
-------------------------|--------------------------|-------------------------|
--------------0----2-----|--------------------------|--------------0----2-----|
--4--4--4--4----------4--|--4--4--4--4--4--4--4--4--|--4--4--4--4----------4--|



--------------------------|-------------------------|------------------|
--------------------------|-------------------------|---SOLO-----------|
--------------------------|-------------------------|------------------|
--4--4--4--4--4--4--4--4--|--4--4--4--4--5----6--7--|------------------|



------------------|---------------------|---------------------|
------------------|---------------------|---------------------|
------------------|--0------0------0----|--0------0------0----|
------------------|---------------------|---------------------|



---------------------|---------------------|---------------------|
---------------------|---------------------|---------------------|
--0------0------0----|--0------0------0----|--0------0------0----|
---------------------|---------------------|---------------------|



---------------------|---------------------|---------------------|
---------------------|---------------------|---------------------|
--0------0------0----|--0------0------0----|--0------0------0----|
---------------------|---------------------|---------------------|



---------------------|---------------------|---------------------|
---------------------|---------------------|---------------------|
--0------0------0----|--0------0------0----|--0------0------0----|
---------------------|---------------------|---------------------|



---------------------|---------------------|---------------------|
---------------------|---------------------|---------------------|
--0------0------0----|--0------0------0----|--0------0------0----|
---------------------|---------------------|---------------------|



---------------------|-------------------|------------------|
---------------------|-------------------|------------------|
--0------0------0----|--0----------------|------------------|
---------------------|-------------------|--------R---------|


---------------------|
---------------------|
------------0--3--0--|
---------------------|



----------------------|------------------|-------------------|
--0-------------------|------------------|-------------------|
-----0----------------|------------------|-------------------|
--------5--7\---------|------------------|------0------------|



---------------------|----------------------|------------------|
---------------------|--0-------------------|------------------|
------------0--3--0--|-----0----------------|------------------|
---------------------|--------5--7\---------|------------------|



-------------------|---------------------|----------------------|
-------------------|---------------------|--0-------------------|
-------------------|------------0--3--0--|-----0----------------|
------0------------|---------------------|--------5--4----------|



---------------------|----------------------|--------------|
---------------0-----|--2-------------------|--------------|
------------0-----0--|-----0--0-------------|--------------|
---------------------|-----------6----------|--------------|



--------------------------------|----------------------|----------------------|
--2----1----0-------------------|----------------------|--0-------------------|
-----------------4----3----2----|--1----------0--3--0--|-----0----------------|
--------------------------------|----------------------|--------5--7\---------|



------------------|--------------------|-----------------------|
------------------|-------------0------|-----0--1--2-----------|
------------------|----4---------------|--3--------------------|
------------------|--------------------|------------------2----|



------------------|---------------------|----------------------|
------------------|---------------------|--0-------------------|
------------------|------------0--3--0--|-----0----------------|
------------------|---------------------|--------5--7\---------|



------------------|-------------------|-----------|-------------------|
------------------|-------------------|-----------|-------------------|
------------------|-------------------|--------0--|----------0--------|
------------------|------0------------|-----------|-------------------|



---------------------||
---------------------||
--0------0------0----||
---------------------||


albums
tabs

 

1