Search tabs:
Browse artists: 0-9 | A | B | C | D | E | F | G | H | I | J | K | L | M | N | O | P | Q | R | S | T | U | V | W | X | Y | Z
/ Kid Rock / Cocky (2001) / Picture bass tab

Kid Rock
Pictures


intro:

G ------------------------------------------------------------------------------------------------------------------
D ------------------------------------------------------------------------------------------------------------------
A -------------------------------3~~~~~3-3~~~~~3/5~~~~~~5/3-3---------------------------------
E --3~~~~~-3-3~~~~~3-------------------------------------------------3~~~~~~~~----------------


Verse:
G ----------------------------------------------------------------------------------------------------------------------------------------------
D ----------------------------------------------------------------------------------------------------------------------------------------------
A-----------------------------------------3h---3-3-3h----3h---3-3-3h---5h--5-5-5h--3h-3-3-3h----------------------------------
E ---3h---3-3-3h----3h---3-3-3h------------------------------------------------------------------------3h---3-3-3h---3h-3-3-3h


Chorus:

G --------------------------------------------------------------------------------------------------------------------------------------------------
D --------------------------------------------------------------------------------------------------------------------------------------------------
A -------------------------------------------------------------------------------5h--5-5-5h---3h---3-3-3h-----------------------------------
E ---0h---0-0-0h---0h---0-0-0h---3h---3-3-3h----3h---3-3-3h-----------------------------------------3h---3-3-3h---3h-3-3-3h


Kid Rock albums
2003 Kid Rock
2001 Cocky
1998 Devil Without A Cause
1993 The Polyfuze Method
Cocky tabs
02Forever tabbass tab
04Cocky tabbass tab
07Lonely Road of Faith tabbass tab
09Picture tabbass tab
11Midnight Train to Memphis tabbass tab

 

1