Search tabs:
Browse artists: 0-9 | A | B | C | D | E | F | G | H | I | J | K | L | M | N | O | P | Q | R | S | T | U | V | W | X | Y | Z
/ / / bass tab

King Diamond - Charon
Tabbed By: dead kyle
Email: kyle19015@yahoo.com

Tuning: Standard (E A D G)



A Intro
                        1x
G|------------------------||
D|-e.-s--e--e-e.-s--e--e--||
A|-7--6-(6)-5-0--1-(1)-2--||
E|------------------------||

B
            3x
G|-------------||
D|-q-----------||
A|-7--q--q--q--||
E|----0--0--0--||

C
            s e. 1x
G|----------7-9----||
D|-q---------------||
A|-7--q--q---------||
E|----0--0---------||

Riff B 4x



D

                   2x  1st ending
G|--------------------|------------------||
D|--------------------|------------------||
A|-e-ss-e-e-ss-e-e-e--|-e-ss-e-e-ss-e-q--||
E|-5-55-5-3-33-3-1-3--|-5-55-5-3-33-3-1--||

2nd ending


G|---------e-e-e----||
D|-----e-e-5-7-5-e--||
A|-e-e-5-7-------8--||
E|-5-8--------------||

Riff B 3x
Riff C 1x
Riff B 4x

E (Chorus)


G|------------------|---------------|-----------------||
D|------------------|-q---q---q--q--|-e----q----------||
A|--------w---------|-3--(3)--5--3--|-3-e--r--q---q---||
E|--------5---------|---------------|---0-----0--(0)--||



G|---------------|------------------|------------------||
D|----q----------|--------w---------|-e-e-e-e-e-e-e-e--||
A|-q--r--q---q---|--------5---------|-2-2-2-2-2-2-2-2--||
E|-3-----0--(0)--|------------------|------------------||

                                                       1x
G|-------------e----|-----e-e---e-e----|-e----------------||
D|-e-e-e-e-e-e-5-e--|-e-e-3-5-e-5-3-e--|-3-e-e---e--------||
A|-2-2-2-2-2-2---3--|-3-5-----r-----5--|---5-3-e-3-e-e-e--||
E|------------------|------------------|-------5---5-4-3--||

F

                                                             2x
G|------------------|------------------|------------------------||
D|------------------|------------------|-e.-s--e--e-------------||
A|--------w---------|--------w---------|-8--7-(7)-5-e.-s--e--e--||
E|--------1---------|-------(1)--------|------------7--8-(8)-7--||

Riff B 3x
Riff C 1x
Riff D 2x
RIff B 3x
Riff C 1x
Riff B 4x
Riff E 1x
Riff F 2x

G Guitar Solo
                 4x 1st+3rd endings
G|-----------------|----------------------||
D|-----e---q---q---|-q--e--e-e------------||
A|-e-e-8-e-7--(7)--|-8-(8)-7-5-e-e-e-e-e--||
E|-0-0---0---------|-----------8-5-6-7-0--||

  2nd+4th endings
G|----------------------||
D|-e--e--e-e------------||
A|-2-(2)-1-0-e-e-e-e-e--||
E|-----------0-3-5-3-0--||


H

                  4x   1st+3rd endings    2nd+4thendings
G|--------------------|------------------|----------------------||
D|-------------e---e--|--e--e-e-e-e-e----|--e--e-q---e--e---q---||
A|-e-e-e-e-e-e-3-e-2--|-(2)-2-2-2-3-2-q--|-(2)-2-3--(3)-4--(4)--||
E|-2-2-2-2-2-2---2----|---------------5--|----------------------||

I

G|------------------|----------------H----||
D|------------------|---------------s-e.--||
A|--------w---------|--q----q----q--5-7---||
E|--------0---------|-(0)--(0)--(0)-------||

                                     1x
G|------------------|---------H--------||
D|-q---h--q---------|--h--q--s-e.------||
A|-5\--r--r---------|--r--r--5-7-------||
E|------------------|------------------||

Riff B 3x
Riff C 1x
Riff D 2x
Riff B 3x
Riff C 1x
RIff B 3x
Riff C 1x
Riff E 1x
Riff F 1x


J Guitar Solo 2 (Outro)          K

   - 3 -  - 3 -  - 3 -  - 3 - 2x - 3 -  - 3 -  - 3 -  - 3 - 2x
G|-----------------------------|-----------------------------ll
D|-e-e-e--e-e-e--e-e-e--e-e-e--|-e-e-e--e-e-e--e-e-e--e-e-e--||
A|-7-7-7--7-7-7--7-7-7--7-7-7--|-3-3-3--3-3-3--3-3-3--3-3-3--||
E|-----------------------------|-----------------------------||

Riff J 2x
Riff K 2x

L

   - 3 -  - 3 -  - 3 -  - 3 - 4x
G|-----------------------------||
D|-e-e-e--e-e-e--e-e-e--e-e-e--||
A|-2-2-2--2-2-2--2-2-2--2-2-2--||
E|-----------------------------||

Riff J 2x
Riff K 2x
Riff J 2x
Riff K 2x
Riff L 1x

M
                 - 3 -  - 3 -
   - 3 -  - 3 -      e  e     1x
G|-----------------e-5--5-e----||
D|-e-e-e--e-e-e--e-5------5-e--||
A|-3-3-3--3-3-3--3----------3--||
E|-----------------------------||

Riff L 1x

N

   - 3 -  - 3 -  - 3 -  - 3 - 1x
G|-----------------------------||
D|-e-e-e--e-e-e--e-e-e--e-e-e--||
A|-3-3-3--3-3-3--5-5-5--5-5-5--||
E|-----------------------------||

Riff J 1x

O
   - 3 -  - 3 -  - 3 -  - 3 - 1x
G|---------------e-e--------e--||
D|-e-e-e--e-e-e--4-5-e--e-e-4--||
A|-7-7-7--7-7-7------7--5-7----||
E|-----------------------------||

Riff J 1x

P

                 1x
G|-----------------||
D|-q---q---q---q---||
A|-2--(2)--5--(5)--||
E|-----------------||

Q

   -  3  -  - 3 -  - 3 -  - 3 -
G|-----------------e----------e--|------------------||
D|-e--e--e--e-e-e--4-e-e--e-e-4--|-q---h--q---------||
A|-7-(7)-7--7-7-7----5-7--5-7----|-7\--r--r---------||
E|-------------------------------|------------------||


W=whole note h=half note
q=quater note e=eighth note
s= sixteenth note r= rest
\=slide H=hammer on
(0)=hold note

- 3 - = triplet note


albums
tabs

 

1