Search tabs:
Browse artists: 0-9 | A | B | C | D | E | F | G | H | I | J | K | L | M | N | O | P | Q | R | S | T | U | V | W | X | Y | Z
/ Lenny Kravitz / Greatest Hits (2000) / Are You Gonna Go My Way bass tab

Artist: Lenny Kravitz
Title: Are you gonna go my way
Tabbed by Ivan Udiz (Starbass) Venezuela September 3, 2002

Wait for 8 guitar riffs then start playing the song

Main rhythm of the song itīs this one:

G|-----------|------------|----------|----------|---------|---------|---------|-----------|
D|-----------|------------|----------|----------|---------|---------|---------|-----------|
A|--3-3----3-|--3-3--0--2-|-3-3----2-|-3-3----3-|-3-3---2-|-3-3---2-|-3-3---3-|-3-3-0012--|
E|------5----|------------|-----5----|-----55---|-----5---|----5----|-----55--|-----------|
B|-----------|------------|----------|----------|---------|---------|---------|-----------|
Inmediately repeats again the main riff and then play the next

Chord Change (interlude)
                                     the part below is very fast
G|----------|-----------|-----------|----------------------|
D|----------|-----------|-----------|----------------------|
A|--5-5---5-|--5-5----5-|-5-5----5--|--8866554-4-----------|
E|------7---|------77---|-----77----|----------------------|
B|----------|-----------|-----------|----------------------|
                                                                ...are you gonna go my way
G|-----------|------------|----------|----------|----------------|-------------|----------|--------------------|
D|-----------|------------|----------|----------|----------------|-------------|----------|--------------------|
A|--3-3----3-|--3-3--0--2-|-3-3----2-|-3-3----3-|-3 let pressed--|-3-3-0012----|-3-3-2210-|-3 let pressed------|
E|------5----|------------|-----5----|-----55---|----------------|-------------|----------|------7 let pressed-|
B|-----------|------------|----------|----------|----------------|-------------|----------|--------------------|

wait for 4 guitar riffs then start again with this:

Repeat the main rhythm of the song once then when you finich play this little riff:
G|------------|----------|----------|--------------|
D|------------|----------|----------|--------------|
A|--3-3--0--2-|-3-3-00-2-|-3-3-00-2-|-3-3-00-2-----|
E|------------|----------|----------|--------------|
B|------------|----------|----------|--------------|

                                     the part below is very fast
G|----------|-----------|-----------|----------------------|
D|----------|-----------|-----------|----------------------|
A|--5-5---5-|--5-5----5-|-5-5----5--|--8866554-4-----------|
E|------7---|------77---|-----77----|----------------------|
B|----------|-----------|-----------|----------------------|

                                                                ...are you gonna go my way
G|-----------|------------|----------|----------|----------------|-------------|----------|--------------------|
D|-----------|------------|----------|----------|----------------|-------------|----------|--------------------|
A|--3-3----3-|--3-3--0--2-|-3-3----2-|-3-3----3-|-3 let pressed--|-3-3-0012----|-3-3-2210-|-3 let pressed------|
E|------5----|------------|-----5----|-----55---|----------------|-------------|----------|------7 let pressed-|
B|-----------|------------|----------|----------|----------------|-------------|----------|--------------------|

after this, there is an interlude between the guitars and the drummer and after that comes the bass solo:

G|--------5432------------|---53--64-0-----------|------5323---------------|
D|---5322------50h3-0-----|-35--46----0h3-0------|---25------50h3-0--------|
A|-------------------0012-|----------------0012--|-35---------------0012---| X2 times
E|------------------------|----------------------|-------------------------|
B|------------------------|----------------------|-------------------------|

SOLO PART

after playing the above part play again the first measure of the solo and after then play this:

G|---53--64--------------|
D|-35--46-----3 let ring-|
A|-----------------------|
E|-----------------------|
B|-----------------------|

Outro

G|-----------|------------|----------|----------|---------|---------|---------|-----------|
D|-----------|------------|----------|----------|---------|---------|---------|-----------|
A|--3-3----3-|--3-3--0--2-|-3-3----2-|-3-3----3-|-3-3---2-|-3-3---2-|-3-3---3-|-3-3-0012--|
E|------5----|------------|-----5----|-----55---|-----5---|----5----|-----55--|-----------|
B|-----------|------------|----------|----------|---------|---------|---------|-----------|

G|----------------|-------------|----------|--------------------|
D|----------------|-------------|----------|--------------------|
A|-rest-----------|-3-3-0012----|-3-3-2210-|-3 let pressed------|
E|----------------|-------------|----------|------7 let pressed-|
B|----------------|-------------|----------|--------------------|


Lenny Kravitz albums
2004 Baptism
2001 Lenny
2000 Greatest Hits
1998 5
1995 Circus
1993 Are You Gonna Go My Way?
1991 Mama Said
1989 Let Love Rule
Greatest Hits tabs
01Are You Gonna Go My Way tabbass tab
02Fly Away tabbass tab
03Rock And Roll Is Dead tabbass tab
04Again tabbass tab
05It Ain't Over Till It's Over tabbass tab
06Can't Get You Off My Mind tabbass tab
07Mr. Cab Driver tabbass tab
08American Woman tabbass tab
09Stand By My Woman tabbass tab
10Always On The Run tabbass tab
11Heaven Help tabbass tab
12I Belong To You tabbass tab
13Believe tabbass tab
14Let Love Rule tabbass tab

 

1