Search tabs:
Browse artists: 0-9 | A | B | C | D | E | F | G | H | I | J | K | L | M | N | O | P | Q | R | S | T | U | V | W | X | Y | Z
/ Lenny Kravitz / Greatest Hits (2000) / Mr. Cab Driver bass tab

Mr Cab Driver
By Lenny Kravitz
Tabbed by Alejandra Mikulan

Intro
G|------|-------------------|-------------------|
D|------|-------------------|-------------------|
A|------|-------------------|-------------------|
E|--/5--|--5-5-5-3-x-1-2-1--|--5-5-5-3-x-1-2-1--|

G|-------------------|-------------------|
D|-------------------|-------------------|
A|-------------------|-------------------|
E|--5-5-5-3-x-1-2-1--|--5-5-5-3-x-1-2-1--|

Verse
G|-------------------|------------------|
D|-------------------|------------------|
A|--7-7-7-7--7-7-7-7-|-5-5-5-5--5-5-5-5-|
E|-------------------|------------------|

G|-------------------|-------------------|
D|-------------------|-------------------|
A|-------------------|-------------------|
E|--5-5-5-3-x-1-2-1--|--5-5-5-3-x-1-2-1--|

G|-------------------|------------------|
D|-------------------|------------------|
A|--5-5-5-5--5-5-5-5-|-5-5-5-5--5-5-5-5-|
E|-------------------|------------------|


G|-------------------|-------------------|
D|-------------------|-------------------|
A|-------------------|-------------------|
E|--5-5-5-3-x-1-2-1--|--5-5-5-3-x-1-2-1--|

G|-------------------|------------------|
D|-------------------|------------------|
A|--7-7-7-7--7-7-7-7-|-5-5-5-5--5-5-5-5-|
E|-------------------|------------------|

G|-------------------|-------------------|
D|-------------------|-------------------|
A|-------------------|-------------------|
E|--5-5-5-3-x-1-2-1--|--5-5-5-3-x-1-2-1--|

G|-------------------|------------------|
D|-------------------|------------------|
A|--7-7-7-7--7-7-7-7-|-5-5-5-5--5-5-5-5-|
E|-------------------|------------------|

G|-------------------|-------------------|
D|-------------------|-------------------|
A|-------------------|-------------------|
E|--5-5-5-3-x-1-2-1--|--5-5-5-3-x-1-2-1--|





G|-------------------|------------------|
D|-------------------|------------------|
A|--5-5-5-5--5-5-5-5-|-5-5-5-5--5-5-5-5-|
E|-------------------|------------------|

G|-------------------|-------------------|
D|-------------------|-------------------|
A|-------------------|-------------------|
E|--5-5-5-3-x-1-2-1--|--5-5-5-3-x-1-2-1--|

G|-------------------|------------------|
D|-------------------|------------------|
A|--7-7-7-7--7-7-7-7-|-5-5-5-5--5-5-5-5-|
E|-------------------|------------------|

G|-------------------|-------------------|
D|-------------------|-------------------|
A|-------------------|-------------------|
E|--5-5-5-3-x-1-2-1--|--5-5-5-3-x-1-2-1--|

Bridge
G|-------------------|-------------------|------------------|
D|----4-5-6--7-7-6-5-|-------------------|---4-5-6--7-7-6-5-|
A|-5-----------------|----4-5-6--7-7-6-5-|-5----------------|
E|-------------------|-5-----------------|------------------|

G|-------------------|------------------|-----------------|
D|-------------------|------------------|-----------------|
A|--7-7-7-7--7-7-7-7-|-7-7-7-7--7-7-7-7-|-6p7-6p7-6p7-6p7-|
E|-------------------|------------------|-----------------|

Chorus
G|----------------------------------|
D|----------------------------------|
A|----------------------------------| x4
E|-5-5-5-5--5-5-5-5--5-5-5-3-x-1-2-1|

Verse 2
G|-------------------|------------------|
D|-------------------|------------------|
A|--7-7-7-7--7-7-7-7-|-5-5-5-5--5-5-5-5-|
E|-------------------|------------------|

G|-------------------|-------------------|
D|-------------------|-------------------|
A|-------------------|-------------------|
E|--5-5-5-3-x-1-2-1--|--5-5-5-3-x-1-2-1--|

G|-------------------|------------------|
D|-------------------|------------------|
A|--5-5-5-5--5-5-5-5-|-5-5-4-4--3-3-2-2-|
E|-------------------|------------------|

G|-------------------|-------------------|
D|-------------------|-------------------|
A|-------------------|-------------------|
E|--5-5-5-3-x-1-2-1--|--5-5-5-3-x-1-2-1--|

G|-------------------|------------------|
D|-------------------|------------------|
A|--7-7-7-7--7-7-7-7-|-5-5-5-5--5-5-5-5-|
E|-------------------|------------------|

G|-------------------|-------------------|
D|-------------------|-------------------|
A|-------------------|-------------------|
E|--5-5-5-3-x-1-2-1--|--5-5-5-3-x-1-2-1--|

G|-------------------|------------------|
D|-------------------|------------------|
A|--7-7-7-7--7-7-7-7-|-5-5-5-5--5-5-5-5-|
E|-------------------|------------------|

G|-------------------|-------------------|
D|-------------------|-------------------|
A|-------------------|-------------------|
E|--5-5-5-3-x-1-2-1--|--5-5-5-3-x-1-2-1--|

G|-------------------|------------------|
D|-------------------|------------------|
A|--5-5-5-5--5-5-5-5-|-5-5-5-5--5-5-5-5-|
E|-------------------|------------------|

G|-------------------|-------------------|
D|-------------------|-------------------|
A|-------------------|-------------------|
E|--5-5-5-3-x-1-2-1--|--5-5-5-3-x-1-2-1--|

G|-------------------|------------------|
D|-------------------|------------------|
A|--7-7-7-7--7-7-7-7-|-5-5-5-5--5-5-5-5-|
E|-------------------|------------------|

G|-------------------|-------------------|
D|-------------------|-------------------|
A|-------------------|-------------------|
E|--5-5-5-3-x-1-2-1--|--5-5-5-3-x-1-2-1--|

Bridge 2
G|-------------------|-------------------|------------------|
D|----4-5-6--7-7-6-5-|-------------------|---4-5-6--7-7-6-5-|
A|-5-----------------|----4-5-6--7-7-6-5-|-5----------------|
E|-------------------|-5-----------------|------------------|

G|-------------------|------------------|-----------------|
D|-------------------|------------------|-----------------|
A|--7-7-7-7--7-7-7-7-|-7-7-7-7--7-7-7-7-|-6p7-6p7-6p7-6p7-|  x2
E|-------------------|------------------|-----------------|

Chorus 2:same as chorus 1
Gutar solo:
G|-------------------|------------------|
D|-------------------|------------------|
A|--7-7-7-7--7-7-7-7-|-5-5-5-5--5-5-5-5-|
E|-------------------|------------------|

G|-------------------|-------------------|
D|-------------------|-------------------|
A|-------------------|-------------------|
E|--5-5-5-3-x-1-2-1--|--5-5-5-3-x-1-2-1--|

G|-------------------|------------------|
D|-------------------|------------------|
A|--5-5-5-5--5-5-5-5-|-5-5-5-5--5-5-5-5-|
E|-------------------|------------------|

G|-------------------|-------------------|
D|-------------------|-------------------|
A|-------------------|-------------------|
E|--5-5-5-3-x-1-2-1--|--5-5-5-3-x-1-2-1--|

G|-------------------|------------------|
D|-------------------|------------------|
A|--7-7-7-7--7-7-7-7-|-5-5-5-5--5-5-5-5-|
E|-------------------|------------------|

G|-------------------|-------------------|
D|-------------------|-------------------|
A|-------------------|-------------------|
E|--5-5-5-3-x-1-2-1--|--5-5-5-3-x-1-2-1--|

G|-----------------|------------------|
D|-----------------|------------------|
A|--5-x-5-3-2--5-x-|-5/4\\5/6\\5--------|
E|-----------------|------------------|

G|-------------------|-------------------|
D|-------------------|-------------------|
A|-------------------|-------------------|
E|--5-5-5-3-x-1-2-1--|--5-5-5-3-x-1-2-1--|

G|-----------------|------------------|
D|-----------------|------------------|
A|--5-x-5-3-2--5-x-|-5/4\\5/6\\5--------|
E|-----------------|------------------|

G|-------------------|-------------------|
D|-------------------|-------------------|
A|-------------------|-------------------|
E|--5-5-5-3-x-1-2-1--|--5-5-5-3-x-1-2-1--|


G|-----------------|------------------|
D|-----------------|------------------|
A|--5-x-5-3-2--5-x-|-5/4\\5/6\\5--------|
E|-----------------|------------------|


G|-------------------|-------------------|
D|-------------------|-------------------|
A|-------------------|-------------------|
E|--5-5-5-3-x-1-2-1--|--5-5-5-3-x-1-2-1--|

G|----------------------------------|
D|----------------------------------|
A|----------------------------------| x5
E|-5-5-5-5--5-5-5-5--5-5-5-3-x-1-2-1|

End
G|--------|
D|--------|
A|--------|
E|--5-x-5-|


Lenny Kravitz albums
2004 Baptism
2001 Lenny
2000 Greatest Hits
1998 5
1995 Circus
1993 Are You Gonna Go My Way?
1991 Mama Said
1989 Let Love Rule
Greatest Hits tabs
01Are You Gonna Go My Way tabbass tab
02Fly Away tabbass tab
03Rock And Roll Is Dead tabbass tab
04Again tabbass tab
05It Ain't Over Till It's Over tabbass tab
06Can't Get You Off My Mind tabbass tab
07Mr. Cab Driver tabbass tab
08American Woman tabbass tab
09Stand By My Woman tabbass tab
10Always On The Run tabbass tab
11Heaven Help tabbass tab
12I Belong To You tabbass tab
13Believe tabbass tab
14Let Love Rule tabbass tab

 

1