Search tabs:
Browse artists: 0-9 | A | B | C | D | E | F | G | H | I | J | K | L | M | N | O | P | Q | R | S | T | U | V | W | X | Y | Z
/ The Levellers / Levelling the Land (1992) / Liberty Song bass tab

Hi this is a gr8 tab as well and it wud b apriciated if you let me kno wat u htort of this tab as well thanx . please rate it to.


Intro
38 secs

G-----------------------------------------------------------------------------------
D-----------------------------------------------------------------------------------
A -0-0-0----0-0-32------------------------------------------------------------------
E 5-5-5-33-5-5----53---------------------------------------------------------------

Verse
1.02

G--------------------------
D------------------------x2
A---------2222-2222--------
E5555-5555-----------------

PRE CHORUS
1.15

G---------------------
D-------------------x2
A3-3-33-755755--------
E-3-3--5------5-------

CHORUS

G-------------------------
D---220-------------------
A 00---32-55--320---------
E--------3--57---3--------

YOULL HAV TO FIGURE O0UT THE ORDER ON YOUR OWN


The Levellers albums
2005 Truth & Lies
2003 Green Blade Rising
1997 Mouth to Mouth
1995 Zeitgeist
1994 Levellers
1992 Levelling the Land
1990 A Weapon Called the Word
Levelling the Land tabs
01One Way tabbass tab
02The Game tabbass tab
03The Boatman tabbass tab
04Liberty Song tabbass tab
06Sell Out tabbass tab
07Another Man's Cause tabbass tab
08The Road tabbass tab
09The Riverflow tabbass tab
10Battle of the Beanfield tabbass tab
11Fifteen Years tabbass tab

 

1