Search tabs:
Browse artists: 0-9 | A | B | C | D | E | F | G | H | I | J | K | L | M | N | O | P | Q | R | S | T | U | V | W | X | Y | Z
/ The Living End / Modern Artillery (2003) / Jimmy bass tab

The Living End - Jimmy

Tabbed by kingswood87

Intro
G----------------------------------------------------|
D-------------6------------6-------------------------|
A-----------4----------------4-----------------------|
E-5---------------------------------5-5--44-2-2-2-2--|
Jimmy,       whats your vote?       you don't have to repay  . .


Pre Verse
G-------------------------|
D-------------------------|
A--4-4-4-4-4-4-4----------|
E------------------4-5-4--|

Verse         x2
G---------------------|-----------------------------|
D---------------------|-----------------------------|
A---4---4-2---2-3-4---|---4--4-2---2--4-------------|
E-----------4---------|----------4-------4-4-4-4----|

Pre Chorus
G----------------------------------------------------|
D----------------------------------------------------|
A-------------------------------------4-4-4-4-4-4-4--|
E--2-2-2-2-2-2-2-----4-4-4-4-4-4-4-------------------|


Chorus
G------------------------------------------------------------------------------|
D-----------------------7---6-6-6-6-6-6----------------------------------------|
A---------------------7---7-------------7-6---4-4-4-4-4-4-4-4------------------|
E---5-5-5-5-5-5-5-5-------------------------------------------5-5-4-4-2-2-2-2--|

Pre Verse
Verse
Chorus

Bridge
G-----------------------------------------------------------------|
D-----------------------------------------------------------------|
A-4-4-4-4-4-4-4-4-----2---2-4-2-----------------------------------|
E-----------------2h4--4--------4--5-5-5-5-4-4-4-4-2-2-2-2-2-2-2--|


Guitar Solo ( pause at the start)


G-------------------------|
D----2-------------6---6--|
A--4---4-----2-3----------|
E--------4-4-----4---4----|

G------------------------------------------------------------------|
D---2---------------4-2---------------2----------------------------|
A-4---4------2-3-4-------4-----2-3-4-----4------2-4------6-5---4---|
E--------4-4---------------4-4--------------4-4------4-7-----4-----|

G------------------------------------------------------------------------|
D---2---------------4-2---------------2------------------6---6-8-9-8-----|
A-4---4-------2-3-4------4-----2-3-4-----4--------2-4------6----------6--|
E--------4-4---------------4-4--------------4-4--------------------------|

G-------------------------------------------------------------------------|
D---2---------------4-2---------------2----------------------------4---6--|
A-4---4------2-3-4-------4------2-3-4----4-------2-4---------4--6---------|
E--------4-4---------------4-4--------------4-4------4---7----------------|

Other Verse Bit
G---------------------------------------|
D---------------------------------------|
A---------------4-4----------------4-4--|
E----5-----4---------5---5-5---4--------|


Pre Verse
Verse
Chorus 2
G-------------------------------------------------------------------|
D------------------------7---6-6-6-6-6-6----------------------------|
A----------------------7---7---------------7-6--4-4-4-4-4-4-4-4--2--|
E--5-5-5-5-5-5-5-5--------------------------------------------------|

G-------------------------------------------------------------------------------|
D-----------------------7---6-6-6-6-6-6-----------------------------------------|
A---------------------7---7--------------7-6--4-4-4-4-4-4-4-4-------------------|
E--5-5-5-5-5-5-5-5---------------------------------------------5-5-4-4-2-2-2-2--|


Repeat last bit a few times (you don't have to repay them . . )

Ending
G------------------------|
D------------------------|
A---4-4------------------|
E--------2-2---4-4----5--|


The Living End albums
2003 Modern Artillery
2000 Roll On
1998 Hellbound: It's for Your Own Good
1998 The Living End
Modern Artillery tabs
01What Would You Do? tabbass tab
02One Said to the Other tabbass tab
03Who's Gonna Save Us? tabbass tab
04End of the World tabbass tab
05Jimmy tabbass tab
06Tabloid Magazine tabbass tab
08Maitland Street tabbass tab
09Putting You Down tabbass tab
10Short Notice tabbass tab
12Rising Up from the Ashes tabbass tab
13Hold Up tabbass tab
14The Room tabbass tab

 

1