Search tabs:
Browse artists: 0-9 | A | B | C | D | E | F | G | H | I | J | K | L | M | N | O | P | Q | R | S | T | U | V | W | X | Y | Z
/ The Living End / Modern Artillery (2003) / One Said to the Other bass tab

Band: Living End
Song: One Said To The Other
Tuning: Standard (E A D G)
Tabbed By: Adam Duncan/Quack_the_Duck (budweiser_frog69@hotmail.com)


Intro:

G|------------------|------------------------------|--------------------------------------|
D|------------------|------------------------------|--------------------------------------|
A|-5555555555555555-|------44-4------55-5----------|------44-4------55-5------4444--------|
E|------------------|-55-5------22-2------222-0000-|-55-5------22-2------222--------00-00-|


Verse:

G|------------------------|-------------2-------|-------|
D|------------------------|---------2-4---4-2---|-------|
A|----2-44---------5-5-5\-|----2-44-----------0-|-4h5p4-|
E|-55-------0-22-2--------|-55------------------|-------|

G|------------------------|-------------2-------|
D|------------------------|---------2-4---4-2---|
A|----2-44---------5-5-5\-|----2-44-----------0-|
E|-55-------0-22-2--------|-55------------------|


Pre-Chorus:

G|---------------------------|---------------|
D|---------------------------|---------------|
A|-------4444-5555-5/7-5-4-2-|-------4444-5--|
E|-2222----------------------|-2222----------|


Chorus:

G|------------------------------|--------------------------------------|
D|------------------------------|--------------------------------------|
A|------44-4------55-5----------|------44-4------55-5------4444--------|
E|-55-5------22-2------222-0000-|-55-5------22-2------222--------00-00-|


Verse 2:

G|------------------------|-------------2-------|-------|
D|------------------------|---------2-4---4-2---|-------|  x2
A|----2-44---------5-5-5\-|----2-44-----------0-|-4h5p4-|
E|-55-------0-22-2--------|-55------------------|-------|

G|------------------------|-------------2-------|
D|------------------------|---------2-4---4-2---|
A|----2-44---------5-5-5\-|----2-44-----------0-|
E|-55-------0-22-2--------|-55------------------|


Pre-Chorus:

G|---------------------------|---------------|
D|---------------------------|---------------|
A|-------4444-5555-5/7-5-4-2-|-------4444-5--|
E|-2222----------------------|-2222----------|


Chorus:
                                                                         ...Lead into Solo
G|------------------------------|--------------------------------------|-----------|
D|------------------------------|--------------------------------------|-----------|
A|------44-4------55-5----------|------44-4------55-5------4444--------|-----------|
E|-55-5------22-2------222-0000-|-55-5------22-2------222--------00-00-|--0-1-2-34-|


Guitar Solo:

G|------------------------|-------------2-------|
D|------------------------|---------2-4---4-2---|  x2
A|----2-44---------5-5-5\-|----2-44-----------0-|
E|-55-------0-22-2--------|-55------------------|


Pre-Chorus: (variation)

G|-------------------------------|------------------------|
D|-------------------------------|------------------------|
A|-------44-4-55-5-5/7-5-4-2h4p2-|-------44-4-55-7-7-754--|
E|-22-2--------------------------|-22-2-------------------|

G|---------------------------|---------------|
D|---------------------------|---------------|
A|-------4444-5555-5/7-5-4-2-|-------4444-5--|
E|-2222----------------------|-2222----------|


*REST 4 BARS THEN...*

G|-------------------------|------------------|
D|-------------------------|------------------|
A|----2-44---------5-5-542-|----2-44------4-2-|
E|-55-------0-22-2---------|-55-------0-2-----|


Pre-Chorus:

G|---------------------------|    |---------------|
D|---------------------------| x3 |---------------|
A|-------4444-5555-5/7-5-4-2-|    |-------4444-5--|
E|-2222----------------------|    |-2222----------|


Chorus:

G|------------------------------|-----------------------------------|
D|------------------------------|-----------------------------------|
A|------44-4------55-5----------|------44-4------55-5------4444-----|
E|-55-5------22-2------222-0000-|-55-5------22-2------222--------00-|

G|------------------------------|--------------------------------------|-------|-----------||
D|------------------------------|--------------------------------------|-------|-----------||
A|------44-4------55-5----------|------44-4------55-5------4444--------|-------|-----------||
E|-55-5------22-2------222-0000-|-55-5------22-2------222--------00-00-|-00-00-|-0-1-234-5-||


The Living End albums
2003 Modern Artillery
2000 Roll On
1998 Hellbound: It's for Your Own Good
1998 The Living End
Modern Artillery tabs
01What Would You Do? tabbass tab
02One Said to the Other tabbass tab
03Who's Gonna Save Us? tabbass tab
04End of the World tabbass tab
05Jimmy tabbass tab
06Tabloid Magazine tabbass tab
08Maitland Street tabbass tab
09Putting You Down tabbass tab
10Short Notice tabbass tab
12Rising Up from the Ashes tabbass tab
13Hold Up tabbass tab
14The Room tabbass tab

 

1