Search tabs:
Browse artists: 0-9 | A | B | C | D | E | F | G | H | I | J | K | L | M | N | O | P | Q | R | S | T | U | V | W | X | Y | Z
/ The Living End / Modern Artillery (2003) / Short Notice bass tab

THE LIVING END - SHORT NOTICE

Tabbed by Kingswood87

  INTRo
G|----------------------------------------------------------------------------------|
D|----------------------------------------------------------------------------------|
A|---------(wait for weird druming)-------------------------------------------------|
E|------------------------------------5-5-5-5-5-5-5-5-5-5-5-5-5-5-5-5-5--etc.-------|

  VERSE
G|----------------------------------------------------------------------------------|
D|----------------------------------------------------------------------------------|
A|----------------------------------------------------------------------------------|
E|--5-5-5-5-5-5-5-5-5-5-5-5-5-5-5-5--0-0-0-0-0-0-0-0-0-0-0-0-0-0-0-0---(x2)---------|

                    "never gonna miss you"
G|----------------------------------------------------------------------------------|
D|----------------------------------------------------------------------------------|
A|---------------------------4-4-4-4------------------------------------------------|
E|--5-5-5-5-5-5-5-5--4-4-4-4--------------------------------------------------------|

  PRE CHORUS							  "we're going round"
G|----------------------------------------------------------------------------------|
D|----------------------------------------------------------------------------------|
A|----------------------------------0-0--2-2-2-2-2-2-2-2-2-2-2-2-2-0-2-0-2-(pause)--|
E|--2-2-2-2-2-2-2-2-2-2-2-2-2-2-2-2-------------------------------------------------|

  CHORUS
G|----------------------------------------------------------------------------------|
D|-------------------------------------------------------------------------6--------|
A|---------------------------------------------------------------------6-9---9-6-6--|
E|-7-0-0-0-0-0-0-0-0--5-5-5-5-5-5-5-5-(x2)-0-0-0-0-0-0-0-0-5--6--7-7-7--------------|

  VERSE

  PRE CHORUS

  CHORUS
G|----------------------------------------------------------------------------------|
D|-----------------------------------------------------------------------6----------|
A|-------------------------------------------------------------------6-9---9-6-6----|
E|-7-0-0-0-0-0-0-0-0-5-5-5-5-5-5-5-5-(x2)-0-0-0-0-0-0-0-0-5--6--7-7-7-------------7-|

G|----------------------------------------------------------------------------------|
D|----------------------------------------------------------------------------------|
A|----------------------------------------------------------------------------------|
E|-0-0-0-0-0-0-0-0-5-5-5-5-5-5-5-5-(x2)-0-0-0-0-0-0-0-0-5--6--7-7-7-7-7-7-7-7-7-7-7-|

  SOLO (if you can't play the quick enough just play E,A,E,B,E,A,D,B)
G|----------------------------------------------------------------------------------|
D|-----------8-9--6-7-7-7-7-7-7-7-7------------8-9----------------------------------|
A|----7-9--0----------------------------7-9--0--------------------------------------|
E|--0---------------------------------0------------5-7-7-7-7-7-7-7-7----------------|

G|----------------------------------------------------------------------------------|
D|-----------8-9--6-7-7-7-7-7-7-7-7-------------------------------------------------|
A|----7-9--0-------------------------7-5-5-5-5-5-5-5-5------------------------------|
E|--0---------------------------------------------------5-7-7-7-7-7-7-7-7-7-7-7-7---|

  VERSE
G|----------------------------------------------------------------------------------|
D|----------------------------------------------------------------------------------|
A|----------------------------------------------------------------------------------|
E|--5-5-5-5-5-5-5-5-5-5-5-5-5-5-5-5--0-0-0-0-0-0-0-0-0-0-0-0-0-0-0-0----------------|

G|----------------------------------------------------------------------------------|
D|----------------------------------------------------------------------------------|
A|----------------------------------------------------------------------------------|
E|--5-5-5-5-5-5-5-5-5-5-5-5-5-5-5-5--0-0-0-0-0-0-0-0-0-0-0-0-2-2-4-4----------------|

                     "never gonna miss you"
G|----------------------------------------------------------------------------------|
D|-------------------66-44----------------------------------------------------------|
A|-------------------------77-66-44-------------------------------------------------|
E|--5-5-5-5-5-5-5-5-----------------77-55-44----------------------------------------|

  PRE CHORUS							
G|----------------------------------------------------------------------------------|
D|----------------------------------------------------------------------------------|
A|----------------------------------0-0----------------------------------0-0--------|
E|--2-2-2-2-2-2-2-2-2-2-2-2-2-2-2-2------2-2-2-2-2-2-2-2-2-2-2-2-2-2-2-2------------|

G|----------------------------------------------------------------------------------|
D|----------------------------------------------------------------------------------|
A|--2-2-2-2-2-2-2-2-2-2-2-2-2-0-2-0-2-(pause)---------------------------------------|
E|----------------------------------------------------------------------------------|

  CHORUS
G|----------------------------------------------------------------------------------|
D|------------------------------------------------------------------------6---------|
A|--------------------------------------------------------------------6-9---9-6-6---|
E|-7-0-0-0-0-0-0-0-0-5-5-5-5-5-5-5-5-(x2)-0-0-0-0-0-0-0-0-5--6--7-7-7-------------7-|

G|----------------------------------------------------------------------------------|
D|----------------------------------------------------------------------------------|
A|----------------------------------------------------------------------------------|
E|-0-0-------7-7-6-5-5-5-5-5-5-5-5---0-0-0-0-0-7-7-6--5-5-5-5-5-5-5-5-5-------------|

G|----------------------------------------------------------------------------------|
D|----------------------------------------------------------------6-----------------|
A|------------------------------------------------------------6-9---9-6-6-----------|
E|--0-0-0-0-0-0-0-0-5--6--7-7-7-7-7-7-7-7-7-7-7-7-7-7-7-7-7-7----------------7--0-0-|

Not too hard boys/girls. Enjoy


The Living End albums
2003 Modern Artillery
2000 Roll On
1998 Hellbound: It's for Your Own Good
1998 The Living End
Modern Artillery tabs
01What Would You Do? tabbass tab
02One Said to the Other tabbass tab
03Who's Gonna Save Us? tabbass tab
04End of the World tabbass tab
05Jimmy tabbass tab
06Tabloid Magazine tabbass tab
08Maitland Street tabbass tab
09Putting You Down tabbass tab
10Short Notice tabbass tab
12Rising Up from the Ashes tabbass tab
13Hold Up tabbass tab
14The Room tabbass tab

 

1