Search tabs:
Browse artists: 0-9 | A | B | C | D | E | F | G | H | I | J | K | L | M | N | O | P | Q | R | S | T | U | V | W | X | Y | Z
/ The Living End / Modern Artillery (2003) / What Would You Do bass tab

THE LIVING END - WHAT WOULD YOU DO

Tabbed by kingswood87

  VERSE
G|---------------------------------------------------------------------------------|
D|---------------------------------------------------------------------------------|
A|-5-5-5-5-5-5-5-5-5-5-5-5-5-5-5-5-5-5-5-5-5-5-5-5-5-5-5-5-5-5-5-5-----------------|
E|-----------------------------------------------------------------3-3-3-3-3-3-3-3-|

G|---------------------------------------------------------------------------------|
D|---------------------------------------------------------------------------------|
A|-----------------------------------5-5-5-5-5-5-5-5-------------------------------|
E|-0-0-0-0-0-0-0-0--3-3-3-3--5-5-5-5-----------------------------------------------|

  REPEAT VERSE

  CHORUS "i've stopped myself"

G|---------------------------------------------------------------------------------|
D|---------------------------------------------------------------------------------|
A|------------------------------------5-5-5-5-5-5-5-5--2-2-2-2-2-2-2-2-------------|
E|--0-0-0-0-0-0-0-0--5-5-5-5-5-5-5-5-----------------------------------------------|

G|---------------------------------------------------------------------------------|
D|---------------------------------------------------------------------------------|
A|------------------------------------------------------5-5-555--------------------|
E|--0-0-0-0-0-0-0-0--5-5-5-5-5-5-5-5--3-3-3-3--5-5-5-5-----------------------------|

  PRE SOLO VERSE
G|---------------------------------------------------------------------------------|
D|---------------------------------------------------------------------------------|
A|-5-5-5-5-5-5-5-5-5-5-5-5-5-5-5-5-5-5-5-5-5-5-5-5-5-5-5-5-5-5-5-5-----------------|
E|-----------------------------------------------------------------3-3-3-3-3-3-3-3-|

G|---------------------------------------------------------------------------------|
D|---------------------------------------------------------------------------------|
A|-----------------------------------5-5-5-5-5-------------------------------------|
E|-0-0-0-0-0-0-0-0--3-3-3-3--5-5-5-5-----------5-7-5-------------------------------|

  SOLO
G|---------------------------------------------------------------------------------|
D|---------------------------------------------------------------------------------|
A|--5-5-5-5-5-5-5-5-5-5-5-5-5---------5-5-5-5-5-5-5-5-5-5-5-5-5--------------------|
E|----------------------------5-7-5-----------------------------5-7-5--------------|

G|---------------------------------------------------------------------------------|
D|---------------------------------------------------------------------------------|
A|------------------------------------------------------5-5-5-5-5-5-5-5-5----------|
E|--3-3-3-3-3-3-3-3--0-0-0-0-0-0-0-0--3-3-3-3--5-5-5-5-----------------------------|

  CHORUS

  LAST VERSE
G|---------------------------------------------------------------------------------|
D|---------------------------------------------------------------------------------|
A|-5-5-5-5-5-5-5-5-5-5-5-5-5-5-5-5-5-5-5-5-5-5-5-5-5-5-5-5-5-5-5-5-----------------|
E|-----------------------------------------------------------------3-3-3-3-3-3-3-3-|

G|---------------------------------------------------------------------------------|
D|---------------------------------------------------------------------------------|
A|-----------------------------------5-5-5-5-5-5-5-5-------------------------------|
E|-0-0-0-0-0-0-0-0--3-3-3-3--5-5-5-5------------------3-3-3-3--5-5-5-5-------------|

G|---------------------------------------------------------------------------------|
D|---------------------------------------------------------------------------------|
A|--5-5-5-5-5-5-5-5----------------------------------------------------------------|
E|--------------------3-3-3-3--5-5-5-5-6-6-6-6-6-6-6-6-7--(let ring)---------------|

G|---------------------------------------------------------------------------------|
D|---------------------------------------------------------------------------------|
A|-------------------------5-5-555-------------------------------------------------|
E|---12/--3-3-3-3--5-5-5-5---------------------------------------------------------|


The Living End albums
2003 Modern Artillery
2000 Roll On
1998 Hellbound: It's for Your Own Good
1998 The Living End
Modern Artillery tabs
01What Would You Do? tabbass tab
02One Said to the Other tabbass tab
03Who's Gonna Save Us? tabbass tab
04End of the World tabbass tab
05Jimmy tabbass tab
06Tabloid Magazine tabbass tab
08Maitland Street tabbass tab
09Putting You Down tabbass tab
10Short Notice tabbass tab
12Rising Up from the Ashes tabbass tab
13Hold Up tabbass tab
14The Room tabbass tab

 

1