Search tabs:
Browse artists: 0-9 | A | B | C | D | E | F | G | H | I | J | K | L | M | N | O | P | Q | R | S | T | U | V | W | X | Y | Z
/ The Living End / Roll On (2000) / Pictures in the Mirror bass tab

Pictures In The Mirror - The living End
Tabbed by dAn
Comments: std tuning  EADG
contact:  satansprog@hotmail.com


    intro
G|-------------------------------------------------------------
D|*-------------------------------------------------------1----
A|*--------1--3--3--3------------1--3--3--3------------1-------
E|---3--3------------------3--3------------------3--3----------


                    2x         guit/vocal
G-------------------||  ||--------------------------||
D------3--1--------*||  ||--------------------------||
A---3--------3--3--*||  ||--------------------------||
E-------------------||  ||--------------------------||


    pre  chorus
G-----------------------------------------------------------------------
D-----------------------------------------------------------------------
A---3--3--3--3--3--3--3--3--3--3--3--3--3--3--3--3--5--5--5--5--5--5----
E-----------------------------------------------------------------------



G---------------------------------|
D---------------------------------|
A---5--5--5--5--5--5--5--5--5--5--|
E---------------------------------|



G---------------------------------------------------------------------
D---------------------------------------------------------------------
A---8--8--8--8--8--8--8--8--8--8--8--8--8--8--8--8-----5--3------5----
E---------------------------------------------------------------------



G--------------------------------------||
D--------------------------------------||
A---3------5--3------5--3--------5--5--||
E--------------------------------------||


    chorus
G---------------------------------------------2--2----------------------
D-----------------------------------------------------------------------
A---5--5--5--5--5--5--5--5--5--5--5--5--5--5----------------------------
E---------------------------------------------------3--3--3--3--3--3----



G---------------------------------|
D---------------------------------|
A---------------2--2--3--3--4--4--|
E---3--3--3--3--------------------|



G-----------------------------------------------------------------------
D---------------------------------------------7--7----------------------
A---5--5--5--5--5--5--5--5--5--5--5--5--5--5----------------------------
E---------------------------------------------------5--5--5--5--5--5----



G---------------------------------|
D---------------------------------|
A---------------------------------|
E---5--5--5--5--5--5--5--5--5--5--|



G-----------------------------------------------------------------------
D-----------------------------------------------------------------------
A-----------------------------------------------------------------------
E---3--3--3--3--3--3--3--3--0--0--0--0--0--0--0--0--5--5--5--5--5--5----



G---------------------------------|
D---------------------------------|
A---------------------------------|
E---5--5--2--2--2--2--2--2--2--2--|



G-----------------------------------------------------||
D-----------------------------------------------------||
A-----------------------------5------5------5------5--||
E---1------1------1------1/---------------------------||


        verse
G||----------------------------------------------------------|
D||--10\-----------------------------------------------------|
A||----------------------------------------------------------|
E||----------5--5--5--5--5--5--5--5--5--5--5--5--5--5--5--5--|



G-----------------------------------------------------------------------
D-----------------------------------------------------------------------
A---------------------------------------------------3--3--3--3--3--3----
E---4--4--4--4--4--4--4--4--4--4--4--4--4--4--4--4----------------------


                                          pre chorus
G---------------------------------||  ||-----------------------||
D---------------------------------||  ||-----------------------||
A---3--3--------------3--3--------||  ||-----------------------||
E------------3--3--5--------5--3--||  ||-----------------------||


         bridge part 1                                       4x
G||-------------------------------------------------------||
D||*-----------------------1-----3-----------------------*||
A||*--3--3--3--3--3--------------------0-----1-----3--3--*||
E||-------------------------------------------------------||


     bridge part 2
G------------------------------------------------------------------|-------
D---/8--7--5-----------3---------/8--7--5--------------3-----------|/8-----
A-------------8--6--5-----3----------------8--6--5--0-----3--------|-------
E------------------------------------------------------------------|-------


                                                      ???
G----------------------------------------------------------|
D---/8--7--5--------------3-----------------3--------------|
A-------------8--6--5--0-----3-----6-----------3--------9--|
E-------------------------------------6--------------7-----|



G-----------9----------------------9----------------------9-------------
D------7h9--------------------7h9--------------------7h9----------------
A---7----------7-----------7----------7-----------7----------7-----7----
E-----------------------------------------------------------------------


                              pre chorus
G---------------------||  ||-----------------------||
D---------------------||  ||-----------------------||
A---7--7--7--7--7--7--||  ||-----------------------||
E---------------------||  ||-----------------------||


first half of chorus then ...
( listen for the change )

G-----------------------------------------------------------------------
D---------------------------4--4--4--4--4--4--4--4--9--9--9--9--9--9----
A---5--5--5--5--5--5--5--5----------------------------------------------
E-----------------------------------------------------------------------


G-----------------------------------|-----------------||
D---7h9-----------------------------|-----------------||
A--------7--7--7--7--7--7--7--7--7--|--5--5-----------||
E-----------------------------------|-----------5--5--||

end section same as intro X3


The Living End albums
2003 Modern Artillery
2000 Roll On
1998 Hellbound: It's for Your Own Good
1998 The Living End
Roll On tabs
01Roll On tabbass tab
02Pictures in the Mirror tabbass tab
03Riot on Broadway tabbass tab
05Carry Me Home tabbass tab
06Don't Shut the Gate tabbass tab
07Dirty Man tabbass tab
08Blood on Your Hands tabbass tab
09Revolution Regained tabbass tab
11Read About It tabbass tab
12Killing the Right tabbass tab
13Astoria Paranoia tabbass tab
14Uncle Harry tabbass tab
15Prisoner of Society tabbass tab

 

1