Search tabs:
Browse artists: 0-9 | A | B | C | D | E | F | G | H | I | J | K | L | M | N | O | P | Q | R | S | T | U | V | W | X | Y | Z
/ The Living End / Roll On (2000) / Read About It bass tab

The Living End -  Read About It

Tabbed by kingswood87


Intro/Main Line:
g-------------------------------------------------------|
d-------5--7--3--5--2--3--0--2-----0----0---------------| (6x)
a--0----------------------------3-----------------------|
e-------------------------------------------------------|


Riff A:
g---------------------------------------|
d-------------------2-2-2-2-2-2-2-------|
a--3-3-3-3-3-3-3-3----------------------|
e---------------------------------------|
"God creates our madness"


Play main line twice, then:

Riff B:
g----------------------------------------------------------------|
d----------------2--2--2--2------------------2-------------------|
a--2--2--2--2------------------2--2--2--2------------------------|
e----------------------------------------------------------------|
"Your photo on the cover of"


Chorus:

g-----------------------------------------------------------------|
d-----------------------------------------------------------------|
a----------------------5--5--5------------------------------------|   (3x)
e-1-1-1-1-1-1-1-1-1-1-----------5-5-5-5-5-5-5-5-5-5-5-5-5-5-5-5---|
"You and I..we read about it.."

g--------------------------------------------------------------|
d--------------------------------------------------------------|
a--------------------------------------------------------------|
e-1--3----5--5-5-5-5-5----1--1-1-1-1-1----0--let ring----------|
"And we fantasize of committing crimes, and so we remain"

Main Riff 3x

Riff A

Main Riff 2x

Riff B

Chorus






Last part of chorus is slightly different

Riff C:
g--------------------------|
d--2--2--------------------|
a---------3--3-------------|
e----------------0---------|
"And so we remain!"


Main Riff 2x, but the rhythm is changed, more swing

Then:
g---------------------------------------------------|
d--------------------0-0--2-2--3-3--5-6-------------|
a--0-0--2-2--3-3------------------------------------|
e---------------------------------------------------|

Solo:
g---------------------------------------------------------------------------------|
d--7--7--7-7--5--3--3--3-3--0--2--2-2----2----------------------------------------|
a---------------------------------------*2h3----3h2----------------------3-2*-----|
e-------------------------------------------------------3--0-0-0-0-2h3------------|

*Note: The little bass background solo at this part is very hard to hear, so the accuracy may be slightly off.

g----------------------------------------------------------|
d--------------3--3-3-3---2--2-2-2--2--2-2-2---------------|
a--0--0-0-0------------------------------------------------|
e----------------------------------------------------------|

g--------0-------4--0------------------------2---------------------------------|
d-2--4-------2---------4--2-----0--2--4--0-------4--2--0---2--2-2-2--2--2-2-2--|
a------------------------------------------------------------------------------|
e------------------------------------------------------------------------------|

g--------0------4--0-------------------------2-------------------------------------------------------|
d-2--4------2----------4--2-----0--2--4--0------4--2--0----------------------------------------------|
a---------------------------------------------------------3--5--3--2--0------------------------------|
e------------------------------------------------------------------------3--3--1--1---let ring-------|


Chorus

Riff C 6x

*Note: There a few extra open E notes at the end of each Riff C this time, listen to the song.




Outro:

g--------0------4--0-------------------------2----------------------------------------------------|
d-2--4------2----------4--2-----0--2--4--0------4--2--0-------------------------------------------|
a----------------------------------------------------------3--5--3--2--0----------2---------------|
e--------------------------------------------------------------------------3--2--------0--0-------|


The Living End albums
2003 Modern Artillery
2000 Roll On
1998 Hellbound: It's for Your Own Good
1998 The Living End
Roll On tabs
01Roll On tabbass tab
02Pictures in the Mirror tabbass tab
03Riot on Broadway tabbass tab
05Carry Me Home tabbass tab
06Don't Shut the Gate tabbass tab
07Dirty Man tabbass tab
08Blood on Your Hands tabbass tab
09Revolution Regained tabbass tab
11Read About It tabbass tab
12Killing the Right tabbass tab
13Astoria Paranoia tabbass tab
14Uncle Harry tabbass tab
15Prisoner of Society tabbass tab

 

1