Search tabs:
Browse artists: 0-9 | A | B | C | D | E | F | G | H | I | J | K | L | M | N | O | P | Q | R | S | T | U | V | W | X | Y | Z
/ The Living End / Roll On (2000) / Riot on Broadway bass tab

Band/living end
Song/Riot On Broadway
troygrech@hotmail


Intro:
g-------0--------------------|
d-2--2-----2--2--0--2-2-0----|
a--------------------------0-|(x2)
e----------------------------|


Verse:
g------------------------|
d------------------------|
a-------------------3-2--|(repeat as needed)
e-5-5-5-5-5-5-0-1-3------|


Pre Chorus:
g---------------------------------------------------------------------------------|
d---------------------------------------------------------------------------------|
a---------------------------------------------------------------------------------|
e-2--2--2--2--2--2--2--2--1--1--1--1--1--1--1--1--2--2--2--2--2--2--2--2---1-1--3-|


Chorus:
g-----------------------------------------------------------------------|
d-----------------------------------------------------------------------|
a-5-5---------------5-5---------------5-5--------------0-0-0-0-0-0-0-0--|
e------6-6-3-3-3-3-------6-6-3-3-3-3-------6-6-3-3-3-3------------------|

*
g-------------------------|
d-0-0-0---3---0-0-0---3---|
a-------1-----------1-----|
e-------------------------|


Verse

Pre Chorus

Chorus (with out the last section (marked with *))


Bridge

g------------------------------|
d-8-8-8--6-6-6--5-5-5--4-4-4---|
a------------------------------|(x4)
e------------------------------|

Brief pause

Guitar solo: (play verse)


Bridge#2:
g---------------------------------------------------------------------------------|
d---------------------------------------------------------------------------------|
a----------6-6-6-6---------6-6-6-6------------------6-6-6-6-6-6-6-6-6-6-6-6-6-6-6-|
e--3-3-3-3---------3-3-3-3---------3-3-3-3-1-1-1-1--------------------------------|


Last Chorus:
g---------------------------------------------------------------------------------------|
d---------------------------------------------------------------------------------------|
a-----------------7-7---------------7-7---------------7-7-------------------------------|
e--5-5---5-5----------8-8--5-5-5-5------8-8--5-5-5-5------8-8--5-5-5-5-7-7-7-7-7-7-7-7--|
  Riot! Riot!


g--------------|
d--------------|
a-------7------|
e-0-------8-5--|


g------------------------------------------------------------------------------|
d------------------------------------------------------------------------------|
a-7-7-------------7-7-------------7-7-------------------------------------7-7--|
e-----8-8-5-5-5-5-----8-8-5-5-5-5-----8-8-5-5-5-5-7-7-7-7-7-7-7-7-pause--------|

YOUR MUM!!!!!!!!


The Living End albums
2003 Modern Artillery
2000 Roll On
1998 Hellbound: It's for Your Own Good
1998 The Living End
Roll On tabs
01Roll On tabbass tab
02Pictures in the Mirror tabbass tab
03Riot on Broadway tabbass tab
05Carry Me Home tabbass tab
06Don't Shut the Gate tabbass tab
07Dirty Man tabbass tab
08Blood on Your Hands tabbass tab
09Revolution Regained tabbass tab
11Read About It tabbass tab
12Killing the Right tabbass tab
13Astoria Paranoia tabbass tab
14Uncle Harry tabbass tab
15Prisoner of Society tabbass tab

 

1