Search tabs:
Browse artists: 0-9 | A | B | C | D | E | F | G | H | I | J | K | L | M | N | O | P | Q | R | S | T | U | V | W | X | Y | Z
/ The Living End / Roll On (2000) / Uncle Harry bass tab

Tab: The Living End - Uncle Harry

By: SlipKnoT Soldier


Intro:

g-x-x-x-x-x-x-x-x-x-x-x-x-x-x-|
d-x-x-x-x-x-x-x-x-x-x-x-x-x-x-|
a-x-x-x-x-x-x-x-x-x-x-x-x-x-x-|
e-x-x-x-x-x-x-x-x-x-x-x-x-x-x-|

Chorus:

g--------------------------------------|
d--------------------------------------|
a-3-3-3-3------------0-0-0-0-----------|
e----------1-1--3-3-----------1-1--3-3-|

g--------------------------------------|
d--------------------------------------|
a-3-3-3-3------------0-0-0-0-----------|
e----------1-1--3-3-----------1-1--3-3-|

g----------------|
d----------------|
a-3-3-3-3-3-3-3--|
e----------------|


Verse:

g----------------------|
d----------------------|(x3)
a--1-1--0-0--1-1-------|
e-----------------2-1--|

g----------------------------|
d----------------------------|
a--1-1--0-0---1-1-2-2-3-3-4--|
e----------------------------|

g----------------------------------|
d----------------------(x3)--------|
a--4-4--3-3--4-4-------------3--5--|
e-----------------5-4--------------|


Chorus


Verse2:

g-----------------------------------------|
d-----------------------------------------|(x4)
a--------------------6-6-6-6--8--8--8--8--|
e--1-1-1-1--4-4-4-4-----------------------|

g-----------------------------------------|
d-----------------------------------------|
a--6-6-6-6--8---6-6-6-6--8---6-6-6-6--8---|
e-----------------------------------------|

g------------------|
d------------------|
a--8---8---8---8---|
e------------------|


Chorus


Bridge:

g--------------------|
d--------------------|
a------------6-------|
e--1----4---------1--|

g--------------------|
d--------------------|
a------------6----3--|
e--1----4------------|

g--------------------------|
d--------------------------|
a--------------------------|
e--1----4----6----8----9---|

g--------------------------------------|
d--------------------------------------|
a----------------3-3--1-1-1-1-1-1-1-1--|
e--1-1-1-1--4-4------------------------|

g-----------------|
d-----------------|
a----------3------|
e--1---4-------1--|



Then guitar by itself goes:

e-----------------------------------------|
b-----------------------------------------|
g--------------------8-8-8-8--10-10-10-10-|
d--3-3-3-3--6-6-6-6--8-8-8-8--10-10-10-10-|(x2)
a--3-3-3-3--6-6-6-6--6-6-6-6--8--8--8--8--|
e--1-1-1-1--4-4-4-4-----------------------|


Verse 2


Last Chorus:

g--------------------------------------|
d--------------------------------------|
a-3-3-3-3------------0-0-0-0-----------|
e----------1-1--3-3-----------1-1--3-3-|

g--------------------------------------|
d--------------------------------------|
a-3-3-3-3------------0-0-0-0-----------|
e----------1-1--3-3-----------1-1--3-3-|


g-------------------|
d-----------(x3)----|
a----------------3--|
e-1-1-1-1-3---------|

g-----------------------------------|
d-----------------------------------|
a-5-5-5-5----------2-2-2-2----------|
e---------3-3-5-5----------3-3-5-5--|

g-------------------------------|
d-------------------------------|
a--5-5-5-5-----------2--------5-|
e----------3-3-5-5------3--5----|


The Living End albums
2003 Modern Artillery
2000 Roll On
1998 Hellbound: It's for Your Own Good
1998 The Living End
Roll On tabs
01Roll On tabbass tab
02Pictures in the Mirror tabbass tab
03Riot on Broadway tabbass tab
05Carry Me Home tabbass tab
06Don't Shut the Gate tabbass tab
07Dirty Man tabbass tab
08Blood on Your Hands tabbass tab
09Revolution Regained tabbass tab
11Read About It tabbass tab
12Killing the Right tabbass tab
13Astoria Paranoia tabbass tab
14Uncle Harry tabbass tab
15Prisoner of Society tabbass tab

 

1