Search tabs:
Browse artists: 0-9 | A | B | C | D | E | F | G | H | I | J | K | L | M | N | O | P | Q | R | S | T | U | V | W | X | Y | Z
/ / / bass tab

Band: Morbid Angel
Song: Curse The Flesh

Intro
|------------------------------------------------------------------|
|------------------------------------------------------------------|
|----2-2-------2-2-------2-2-------2-2-------2-2-------2-2---------|
|--0-----0-0-0-----0-0-0-----0-0-0-----0-0-0-----0-0-0-----0-------|


Verse 1
|----------------------------------------------------------------------------------|
|----------------------------------------------------------------------------------|  (..and spoils.. This demon
|---2-2-------4-4--4-4-4-----2-2-------2-2-------2-2-------2-2-------2-2-------6-6-|    seed..)
|-0-----0-0-0------------0-0-----4-4-4-----0-0-0-----0-0-0-----0-0-0-----4-4-4-----|


Verse 2
|---------------------------------------------------------------------------|
|---------------------------------------------------------------------------|
|-----2-2-2-----2-2-2-----2-2-2-----2-2-2-----2-2-2-----2-2-2---------------|
|-0-0-------0-0-------0-0-------0-0-------0-0-------0-0-------0-0-----------|

|------------------------------------------------------------------|
|------------------------------------------------------------------|
|-----------------------------------------------------------0------|
|-2-2-2-2-2-2-2-2-2-2-2-2-2-2-2-2-2-2-2-2-2-2-2-2-2-2-2-2-0--------|


Chorus;
|------------------------------------------------------------------|
|-----------------3-----------3-----------3------------------------|
|---3-3---------2-----------2-----------2--------------------------|
|-2-----2-2-2-2-----2-2-2-2-----2-2-2-2-----0-0---0---0-0----------|

|------------------------------------------------------------------|
|-----4----4----4----4-----4-4-4-----------------------------------|  x2
|---3----3----3----3-----3-----------------------------------------|
|-2----2----2----2-----2-------------------------------------------|


Verse 3
|---------------------------------------------------------------------------|
|---------------------------------------------------------------------------|
|-----2-2-2-----2-2-2-----2-2-2-----2-2-2-----2-2-2-----2-2-2---------------|
|-0-0-------0-0-------0-0-------0-0-------0-0-------0-0-------0-0-----------|

|------------------------------------------------------------------|
|------------------------------------------------------------------|
|-----------------------------------------------------------0------|
|-2-2-2-2-2-2-2-2-2-2-2-2-2-2-2-2-2-2-2-2-2-2-2-2-2-2-2-2-0--------|


Chorus;
|------------------------------------------------------------------|
|-----------------3-----------3-----------3------------------------|
|---3-3---------2-----------2-----------2--------------------------|
|-2-----2-2-2-2-----2-2-2-2-----2-2-2-2-----0-0---0---0-0----------|

|------------------------------------------------------------------|
|-----4----4----4-----4-4-4-----------------------------------|  x2
|---3----3----3-----3-----------------------------------------|
|-2----2----2-----2-------------------------------------------|


While the guitar solo:
|---------------------------------------------------------------------------|
|---------------------------------------------------------------------------|
|-----2-2-2-----2-2-2-----2-2-2-----2-2-2-----2-2-2-----2-2-2---------------|
|-0-0-------0-0-------0-0-------0-0-------0-0-------0-0-------0-0-----------|

Outro
|---------------------------------------------------------------------------|
|---------------------------------------------------------------------------|
|-----2-2-2-----2-2-2-----2-2-2-----2-2-2-----2-2-2-----2-2-2---------------|
|-0-0-------0-0-------0-0-------0-0-------0-0-------0-0-------0-0-----------|


albums
tabs

 

1